ISO-10303-21;
HEADER;
FILE_DESCRIPTION (( 'STEP AP203' ),
    '1' );
FILE_NAME ('A1429-3-C.STEP',
    '2013-11-12T13:44:01',
    ( '' ),
    ( '' ),
    'SwSTEP 2.0',
    'SolidWorks 2012',
    '' );
FILE_SCHEMA (( 'CONFIG_CONTROL_DESIGN' ));
ENDSEC;

DATA;
#1 = AXIS2_PLACEMENT_3D ( 'NONE', #156, #149, #147 ) ;
#2 = AXIS2_PLACEMENT_3D ( 'NONE', #180, #183, #185 ) ;
#3 = AXIS2_PLACEMENT_3D ( 'NONE', #184, #189, #191 ) ;
#4 = PRODUCT_RELATED_PRODUCT_CATEGORY ( 'detail', '', ( #74 ) ) ;
#5 = CC_DESIGN_SECURITY_CLASSIFICATION ( #10, ( #15 ) ) ;
#6 = CC_DESIGN_APPROVAL ( #7, ( #10 ) ) ;
#7 = APPROVAL ( #93, 'UNSPECIFIED' ) ;
#8 = CC_DESIGN_DATE_AND_TIME_ASSIGNMENT ( #340, #95, ( #10 ) ) ;
#9 = CC_DESIGN_PERSON_AND_ORGANIZATION_ASSIGNMENT ( #344, #97, ( #10 ) ) ;
#10 = SECURITY_CLASSIFICATION ( '', '', #98 ) ;
#11 = CC_DESIGN_PERSON_AND_ORGANIZATION_ASSIGNMENT ( #345, #99, ( #15 ) ) ;
#12 = CC_DESIGN_PERSON_AND_ORGANIZATION_ASSIGNMENT ( #346, #100, ( #15 ) ) ;
#13 = CC_DESIGN_APPROVAL ( #14, ( #15 ) ) ;
#14 = APPROVAL ( #104, 'UNSPECIFIED' ) ;
#15 = PRODUCT_DEFINITION_FORMATION_WITH_SPECIFIED_SOURCE ( 'ANY', '', #74, .NOT_KNOWN. ) ;
#16 = CC_DESIGN_DATE_AND_TIME_ASSIGNMENT ( #354, #107, ( #20 ) ) ;
#17 = CC_DESIGN_PERSON_AND_ORGANIZATION_ASSIGNMENT ( #358, #110, ( #20 ) ) ;
#18 = CC_DESIGN_APPROVAL ( #19, ( #20 ) ) ;
#19 = APPROVAL ( #112, 'UNSPECIFIED' ) ;
#20 = PRODUCT_DEFINITION ( 'UNKNOWN', '', #15, #76 ) ;
#21 = CC_DESIGN_PERSON_AND_ORGANIZATION_ASSIGNMENT ( #368, #116, ( #74 ) ) ;
#22 = AXIS2_PLACEMENT_3D ( 'NONE', #192, #196, #186 ) ;
#23 = AXIS2_PLACEMENT_3D ( 'NONE', #129, #120, #119 ) ;
#24 = AXIS2_PLACEMENT_3D ( 'NONE', #143, #145, #140 ) ;
#25 = AXIS2_PLACEMENT_3D ( 'NONE', #202, #200, #197 ) ;
#26 = AXIS2_PLACEMENT_3D ( 'NONE', #144, #146, #153 ) ;
#27 = AXIS2_PLACEMENT_3D ( 'NONE', #195, #208, #198 ) ;
#28 = AXIS2_PLACEMENT_3D ( 'NONE', #206, #205, #204 ) ;
#29 = AXIS2_PLACEMENT_3D ( 'NONE', #211, #210, #209 ) ;
#30 = AXIS2_PLACEMENT_3D ( 'NONE', #94, #92, #91 ) ;
#31 = AXIS2_PLACEMENT_3D ( 'NONE', #103, #108, #105 ) ;
#32 = AXIS2_PLACEMENT_3D ( 'NONE', #122, #118, #216 ) ;
#33 = AXIS2_PLACEMENT_3D ( 'NONE', #160, #109, #148 ) ;
#34 = AXIS2_PLACEMENT_3D ( 'NONE', #162, #174, #169 ) ;
#35 =( GEOMETRIC_REPRESENTATION_CONTEXT ( 3 ) GLOBAL_UNCERTAINTY_ASSIGNED_CONTEXT ( ( #71 ) ) GLOBAL_UNIT_ASSIGNED_CONTEXT ( ( #126, #125, #124 ) ) REPRESENTATION_CONTEXT ( 'NONE', 'WORKASPACE' ) );
#36 = AXIS2_PLACEMENT_3D ( 'NONE', #155, #168, #177 ) ;
#37 = AXIS2_PLACEMENT_3D ( 'NONE', #152, #154, #157 ) ;
#38 = AXIS2_PLACEMENT_3D ( 'NONE', #171, #175, #165 ) ;
#39 = AXIS2_PLACEMENT_3D ( 'NONE', #164, #159, #163 ) ;
#40 = AXIS2_PLACEMENT_3D ( 'NONE', #201, #181, #199 ) ;
#41 = AXIS2_PLACEMENT_3D ( 'NONE', #161, #151, #150 ) ;
#42 = AXIS2_PLACEMENT_3D ( 'NONE', #217, #96, #213 ) ;
#43 = AXIS2_PLACEMENT_3D ( 'NONE', #182, #173, #172 ) ;
#44 = EDGE_CURVE ( 'NONE', #280, #376, #283, .T. ) ;
#45 = EDGE_CURVE ( 'NONE', #257, #222, #375, .T. ) ;
#46 = EDGE_CURVE ( 'NONE', #232, #282, #241, .T. ) ;
#47 = EDGE_CURVE ( 'NONE', #333, #331, #362, .T. ) ;
#48 = EDGE_CURVE ( 'NONE', #282, #281, #284, .T. ) ;
#49 = EDGE_CURVE ( 'NONE', #282, #232, #371, .T. ) ;
#50 = EDGE_CURVE ( 'NONE', #366, #281, #242, .T. ) ;
#51 = EDGE_CURVE ( 'NONE', #376, #280, #243, .T. ) ;
#52 = EDGE_CURVE ( 'NONE', #232, #366, #236, .T. ) ;
#53 = AXIS2_PLACEMENT_3D ( 'NONE', #207, #219, #179 ) ;
#54 = EDGE_CURVE ( 'NONE', #280, #252, #296, .T. ) ;
#55 = EDGE_CURVE ( 'NONE', #254, #331, #295, .T. ) ;
#56 = EDGE_CURVE ( 'NONE', #222, #257, #297, .T. ) ;
#57 = EDGE_CURVE ( 'NONE', #222, #333, #293, .T. ) ;
#58 = EDGE_CURVE ( 'NONE', #252, #254, #294, .T. ) ;
#59 = EDGE_CURVE ( 'NONE', #257, #331, #292, .T. ) ;
#60 = EDGE_CURVE ( 'NONE', #331, #333, #290, .T. ) ;
#61 = EDGE_CURVE ( 'NONE', #376, #254, #287, .T. ) ;
#62 = AXIS2_PLACEMENT_3D ( 'NONE', #178, #106, #188 ) ;
#63 = AXIS2_PLACEMENT_3D ( 'NONE', #187, #190, #158 ) ;
#64 = AXIS2_PLACEMENT_3D ( 'NONE', #131, #170, #220 ) ;
#65 = EDGE_CURVE ( 'NONE', #252, #333, #288, .T. ) ;
#66 = EDGE_CURVE ( 'NONE', #232, #222, #289, .T. ) ;
#67 = EDGE_CURVE ( 'NONE', #281, #366, #240, .T. ) ;
#68 = EDGE_CURVE ( 'NONE', #254, #252, #238, .T. ) ;
#69 = EDGE_CURVE ( 'NONE', #282, #257, #229, .T. ) ;
#70 = ADVANCED_BREP_SHAPE_REPRESENTATION ( 'A1429-3-C', ( #72, #23 ), #35 ) ;
#71 = UNCERTAINTY_MEASURE_WITH_UNIT (LENGTH_MEASURE( 1.000000000000000100E-005 ), #126, 'distance_accuracy_value', 'NONE');
#72 = MANIFOLD_SOLID_BREP ( 'Fillet9', #253 ) ;
#73 = PERSON ( 'UNSPECIFIED', 'UNSPECIFIED', 'UNSPECIFIED', ('UNSPECIFIED'), ('UNSPECIFIED'), ('UNSPECIFIED') ) ;
#74 = PRODUCT ( 'A1429-3-C', 'A1429-3-C', '', ( #117 ) ) ;
#75 = PRODUCT_DEFINITION_SHAPE ( 'NONE', 'NONE',  #20 ) ;
#76 = DESIGN_CONTEXT ( 'detailed design', #115, 'design' ) ;
#77 = ADVANCED_FACE ( 'NONE', ( #245 ), #267, .T. ) ;
#78 = ADVANCED_FACE ( 'NONE', ( #276 ), #273, .F. ) ;
#79 = ADVANCED_FACE ( 'NONE', ( #269 ), #275, .T. ) ;
#80 = ADVANCED_FACE ( 'NONE', ( #271 ), #262, .T. ) ;
#81 = ADVANCED_FACE ( 'NONE', ( #272 ), #260, .F. ) ;
#82 = DIMENSIONAL_EXPONENTS ( 1.000000000000000000, 0.0000000000000000000, 0.0000000000000000000, 0.0000000000000000000, 0.0000000000000000000, 0.0000000000000000000, 0.0000000000000000000 ) ;
#83 = ADVANCED_FACE ( 'NONE', ( #274, #258 ), #176, .T. ) ;
#84 = ADVANCED_FACE ( 'NONE', ( #265 ), #259, .T. ) ;
#85 = ADVANCED_FACE ( 'NONE', ( #268 ), #263, .T. ) ;
#86 = ADVANCED_FACE ( 'NONE', ( #261 ), #374, .F. ) ;
#87 = ADVANCED_FACE ( 'NONE', ( #266 ), #370, .F. ) ;
#88 = ADVANCED_FACE ( 'NONE', ( #264 ), #330, .T. ) ;
#89 = APPROVAL_ROLE ( '' ) ;
#90 = CARTESIAN_POINT ( 'NONE',  ( 0.06400000000000963300, 1.708231118149819200E-015, -1.003675170923545300E-015 ) ) ;
#91 = DIRECTION ( 'NONE',  ( -1.000000000000000000, -2.631228568361275500E-014, -1.385547092471579100E-015 ) ) ;
#92 = DIRECTION ( 'NONE',  ( -1.252847536643030700E-015, -2.413031099211415300E-017, -1.000000000000000000 ) ) ;
#93 = APPROVAL_STATUS ( 'not_yet_approved' ) ;
#94 = CARTESIAN_POINT ( 'NONE',  ( 5.053518615232940000E-015, 3.236066031557374400E-016, 0.01162739373784291200 ) ) ;
#95 = DATE_TIME_ROLE ( 'classification_date' ) ;
#96 = DIRECTION ( 'NONE',  ( 1.252847536643030700E-015, 2.413031099211415300E-017, 1.000000000000000000 ) ) ;
#97 = PERSON_AND_ORGANIZATION_ROLE ( 'classification_officer' ) ;
#98 = SECURITY_CLASSIFICATION_LEVEL ( 'unclassified' ) ;
#99 = PERSON_AND_ORGANIZATION_ROLE ( 'design_supplier' ) ;
#100 = PERSON_AND_ORGANIZATION_ROLE ( 'creator' ) ;
#101 = DIRECTION ( 'NONE',  ( -1.252847536643030700E-015, -2.413031099211415300E-017, -1.000000000000000000 ) ) ;
#102 = APPROVAL_ROLE ( '' ) ;
#103 = CARTESIAN_POINT ( 'NONE',  ( -0.08065687750963317100, -1.798660200225923700E-015, 0.03991166498530211700 ) ) ;
#104 = APPROVAL_STATUS ( 'not_yet_approved' ) ;
#105 = DIRECTION ( 'NONE',  ( 1.000000000000000000, 2.631228568361275500E-014, 0.0000000000000000000 ) ) ;
#106 = DIRECTION ( 'NONE',  ( 1.252847536643030700E-015, 2.413031099211415300E-017, 1.000000000000000000 ) ) ;
#107 = DATE_TIME_ROLE ( 'creation_date' ) ;
#108 = DIRECTION ( 'NONE',  ( 2.631228568361275800E-014, -1.000000000000000000, 2.413031099208118700E-017 ) ) ;
#109 = DIRECTION ( 'NONE',  ( -2.643475036352749300E-014, 1.000000000000000000, -2.413031099208103300E-017 ) ) ;
#110 = PERSON_AND_ORGANIZATION_ROLE ( 'creator' ) ;
#111 = APPROVAL_ROLE ( '' ) ;
#112 = APPROVAL_STATUS ( 'not_yet_approved' ) ;
#113 = APPLICATION_PROTOCOL_DEFINITION ( 'international standard', 'config_control_design', 1994, #115 ) ;
#114 = DIRECTION ( 'NONE',  ( -1.252847536643030700E-015, -2.413031099211415300E-017, -1.000000000000000000 ) ) ;
#115 = APPLICATION_CONTEXT ( 'configuration controlled 3d designs of mechanical parts and assemblies' ) ;
#116 = PERSON_AND_ORGANIZATION_ROLE ( 'design_owner' ) ;
#117 = MECHANICAL_CONTEXT ( 'NONE', #121, 'mechanical' ) ;
#118 = DIRECTION ( 'NONE',  ( -1.252847536643030700E-015, -2.413031099211415300E-017, -1.000000000000000000 ) ) ;
#119 = DIRECTION ( 'NONE',  ( 1.000000000000000000, 0.0000000000000000000, 0.0000000000000000000 ) ) ;
#120 = DIRECTION ( 'NONE',  ( 0.0000000000000000000, 0.0000000000000000000, 1.000000000000000000 ) ) ;
#121 = APPLICATION_CONTEXT ( 'configuration controlled 3d designs of mechanical parts and assemblies' ) ;
#122 = CARTESIAN_POINT ( 'NONE',  ( 8.871836428643073900E-016, -3.078664633484921400E-016, 0.02999999999999763300 ) ) ;
#123 = APPLICATION_PROTOCOL_DEFINITION ( 'international standard', 'config_control_design', 1994, #121 ) ;
#124 =( NAMED_UNIT ( * ) SI_UNIT ( $, .STERADIAN. ) SOLID_ANGLE_UNIT ( ) );
#125 =( NAMED_UNIT ( * ) PLANE_ANGLE_UNIT ( ) SI_UNIT ( $, .RADIAN. ) );
#126 =( CONVERSION_BASED_UNIT ( 'INCH', #372 ) LENGTH_UNIT ( ) NAMED_UNIT ( #82 ) );
#127 =( LENGTH_UNIT ( ) NAMED_UNIT ( * ) SI_UNIT ( $, .METRE. ) );
#128 = CARTESIAN_POINT ( 'NONE',  ( 0.04800000000000907000, 2.099618160873258300E-015, 0.1699999999999977100 ) ) ;
#129 = CARTESIAN_POINT ( 'NONE',  ( 0.0000000000000000000, 0.0000000000000000000, 0.0000000000000000000 ) ) ;
#130 = CARTESIAN_POINT ( 'NONE',  ( -0.07800000000000101300, -1.218142866361475500E-015, 0.1399999999999988800 ) ) ;
#131 = CARTESIAN_POINT ( 'NONE',  ( 2.868440393347476500E-015, 8.366284480596805700E-016, 0.1699999999999976500 ) ) ;
#132 = CARTESIAN_POINT ( 'NONE',  ( -0.03399999999999713700, -5.967838695260277200E-017, 0.1699999999999976800 ) ) ;
#133 = CARTESIAN_POINT ( 'NONE',  ( -0.05237260626216207900, -1.361355310454654000E-015, 0.01162739373784297700 ) ) ;
#134 = CARTESIAN_POINT ( 'NONE',  ( -0.04799999999999712100, -1.393886192207767200E-015, 0.1699999999999977100 ) ) ;
#135 = CARTESIAN_POINT ( 'NONE',  ( 0.03400000000000089800, 1.733720838649967300E-015, 0.02999999999999758800 ) ) ;
#136 = CARTESIAN_POINT ( 'NONE',  ( 0.05237260626216402200, 1.401144439938348900E-015, 0.01162739373784284200 ) ) ;
#137 = CARTESIAN_POINT ( 'NONE',  ( -0.07799999999999918100, -1.218142866361465800E-015, -9.950170896075054900E-016 ) ) ;
#138 = CARTESIAN_POINT ( 'NONE',  ( 0.07800000000000081900, 2.896125945315477600E-015, -1.190461305323811600E-015 ) ) ;
#139 = CARTESIAN_POINT ( 'NONE',  ( -0.03399999999999912100, -5.967838695273710000E-017, 0.02999999999999767400 ) ) ;
#140 = DIRECTION ( 'NONE',  ( 1.000000000000000000, 2.631228568361280800E-014, -1.252847536643031500E-015 ) ) ;
#141 = CARTESIAN_POINT ( 'NONE',  ( 0.03400000000000287500, 1.733720838650171800E-015, 0.1699999999999976000 ) ) ;
#142 = CARTESIAN_POINT ( 'NONE',  ( 0.07799999999999897300, 2.896125945315480800E-015, 0.1399999999999986800 ) ) ;
#143 = CARTESIAN_POINT ( 'NONE',  ( -1.024176215593467500E-015, 2.557105763600782500E-016, 0.1399999999999987900 ) ) ;
#144 = CARTESIAN_POINT ( 'NONE',  ( 2.868440393347476500E-015, 8.366284480596805700E-016, 0.1699999999999976500 ) ) ;
#145 = DIRECTION ( 'NONE',  ( 1.252847536643030700E-015, 2.413031099211415300E-017, 1.000000000000000000 ) ) ;
#146 = DIRECTION ( 'NONE',  ( -1.252847536643030700E-015, -2.413031099211415300E-017, -1.000000000000000000 ) ) ;
#147 = DIRECTION ( 'NONE',  ( -1.000000000000000000, -2.631228568361275500E-014, -1.385547092471579100E-015 ) ) ;
#148 = DIRECTION ( 'NONE',  ( -1.000000000000000000, -2.643475036352749300E-014, 0.0000000000000000000 ) ) ;
#149 = DIRECTION ( 'NONE',  ( -1.252847536643030700E-015, -2.413031099211415300E-017, -1.000000000000000000 ) ) ;
#150 = DIRECTION ( 'NONE',  ( -1.000000000000000000, -2.618982100369806700E-014, 0.0000000000000000000 ) ) ;
#151 = DIRECTION ( 'NONE',  ( -2.618982100369807000E-014, 1.000000000000000000, -2.413031099208134100E-017 ) ) ;
#152 = CARTESIAN_POINT ( 'NONE',  ( 8.188874430227007600E-016, 1.640709488382370000E-017, -1.092739197465705300E-015 ) ) ;
#153 = DIRECTION ( 'NONE',  ( -1.000000000000000000, -2.631228568361280200E-014, -1.004355880023496000E-015 ) ) ;
#154 = DIRECTION ( 'NONE',  ( -1.252847536643030700E-015, -2.413031099211415300E-017, -1.000000000000000000 ) ) ;
#155 = CARTESIAN_POINT ( 'NONE',  ( 2.868440393347476500E-015, 8.366284480596805700E-016, 0.1699999999999976500 ) ) ;
#156 = CARTESIAN_POINT ( 'NONE',  ( 5.053518615232940000E-015, 3.236066031557374400E-016, 0.01162739373784291200 ) ) ;
#157 = DIRECTION ( 'NONE',  ( -1.000000000000000000, -2.631228568361280500E-014, -1.391625414721057700E-015 ) ) ;
#158 = DIRECTION ( 'NONE',  ( 1.000000000000000000, 2.631228568361280200E-014, 1.004355880023496000E-015 ) ) ;
#159 = DIRECTION ( 'NONE',  ( -1.252847536643030700E-015, -2.413031099211415300E-017, -1.000000000000000000 ) ) ;
#160 = CARTESIAN_POINT ( 'NONE',  ( 0.08065687750963564100, 2.455751025224538500E-015, 0.03991166498530233900 ) ) ;
#161 = CARTESIAN_POINT ( 'NONE',  ( -0.04800000000000723100, -1.001400831817591600E-015, 0.1399999999999987100 ) ) ;
#162 = CARTESIAN_POINT ( 'NONE',  ( 8.188874430227007600E-016, 1.640709488382370000E-017, -1.092739197465705300E-015 ) ) ;
#163 = DIRECTION ( 'NONE',  ( 1.000000000000000000, 2.631228568361280800E-014, 1.313388458492264300E-015 ) ) ;
#164 = CARTESIAN_POINT ( 'NONE',  ( -1.024176215593467500E-015, 2.557105763600782500E-016, 0.1399999999999987900 ) ) ;
#165 = DIRECTION ( 'NONE',  ( -1.000000000000000000, -2.631228568361275500E-014, 1.252847536643031500E-015 ) ) ;
#166 = CARTESIAN_POINT ( 'NONE',  ( 0.07800000000001294800, 2.898538976415095500E-015, 0.1699999999999977400 ) ) ;
#167 = CARTESIAN_POINT ( 'NONE',  ( -0.03400000000000154300, -5.798926518327079400E-017, 0.1699999999999976000 ) ) ;
#168 = DIRECTION ( 'NONE',  ( -1.252847536643030700E-015, -2.413031099211415300E-017, -1.000000000000000000 ) ) ;
#169 = DIRECTION ( 'NONE',  ( 1.000000000000000000, 2.631228568361280800E-014, 1.391625414721057100E-015 ) ) ;
#170 = DIRECTION ( 'NONE',  ( 1.252847536643030700E-015, 2.413031099211415300E-017, 1.000000000000000000 ) ) ;
#171 = CARTESIAN_POINT ( 'NONE',  ( 1.229598379179550100E-015, 3.236066031557376900E-016, 0.03991166498530222800 ) ) ;
#172 = DIRECTION ( 'NONE',  ( 1.000000000000000000, 2.631228568361280200E-014, 1.391625414721056700E-015 ) ) ;
#173 = DIRECTION ( 'NONE',  ( -1.391625414721057300E-015, 2.413031099204456700E-017, 1.000000000000000000 ) ) ;
#174 = DIRECTION ( 'NONE',  ( 1.252847536643030700E-015, 2.413031099211415300E-017, 1.000000000000000000 ) ) ;
#175 = DIRECTION ( 'NONE',  ( -1.252847536643030700E-015, -2.413031099211415300E-017, -1.000000000000000000 ) ) ;
#176 = PLANE ( 'NONE',  #43 ) ;
#177 = DIRECTION ( 'NONE',  ( -1.000000000000000000, -2.631228568361280800E-014, -1.313388458492264300E-015 ) ) ;
#178 = CARTESIAN_POINT ( 'NONE',  ( 8.188874430227007600E-016, 1.640709488382370000E-017, -1.092739197465705300E-015 ) ) ;
#179 = DIRECTION ( 'NONE',  ( 1.000000000000000000, 2.631228568361280800E-014, 1.313388458492264300E-015 ) ) ;
#180 = CARTESIAN_POINT ( 'NONE',  ( 2.868440393347476500E-015, 8.366284480596805700E-016, 0.1699999999999976500 ) ) ;
#181 = DIRECTION ( 'NONE',  ( 2.631228568361280500E-014, -1.000000000000000000, 2.413031099208118700E-017 ) ) ;
#182 = CARTESIAN_POINT ( 'NONE',  ( 2.868440393347476500E-015, 8.366284480596805700E-016, 0.1699999999999976500 ) ) ;
#183 = DIRECTION ( 'NONE',  ( -1.252847536643030700E-015, -2.413031099211415300E-017, -1.000000000000000000 ) ) ;
#184 = CARTESIAN_POINT ( 'NONE',  ( 2.868440393347476500E-015, 8.366284480596805700E-016, 0.1699999999999976500 ) ) ;
#185 = DIRECTION ( 'NONE',  ( -1.000000000000000000, -2.631228568361280200E-014, -1.004355880023496000E-015 ) ) ;
#186 = DIRECTION ( 'NONE',  ( -1.000000000000000000, -2.631228568361275500E-014, 1.252847536643031500E-015 ) ) ;
#187 = CARTESIAN_POINT ( 'NONE',  ( 2.868440393347476500E-015, 8.366284480596805700E-016, 0.1699999999999976500 ) ) ;
#188 = DIRECTION ( 'NONE',  ( 1.000000000000000000, 2.631228568361280800E-014, 1.391625414721057100E-015 ) ) ;
#189 = DIRECTION ( 'NONE',  ( -1.252847536643030700E-015, -2.413031099211415300E-017, -1.000000000000000000 ) ) ;
#190 = DIRECTION ( 'NONE',  ( 1.252847536643030700E-015, 2.413031099211415300E-017, 1.000000000000000000 ) ) ;
#191 = DIRECTION ( 'NONE',  ( -1.000000000000000000, -2.631228568361280800E-014, -1.313388458492264300E-015 ) ) ;
#192 = CARTESIAN_POINT ( 'NONE',  ( 1.229598379179550100E-015, 3.236066031557376900E-016, 0.03991166498530222800 ) ) ;
#193 = DIRECTION ( 'NONE',  ( -0.7071067811866008600, -1.862265834193637100E-014, -0.7071067811864940600 ) ) ;
#194 = CARTESIAN_POINT ( 'NONE',  ( -0.06400000000000799500, -1.667579188867627800E-015, -1.181803224007865200E-015 ) ) ;
#195 = CARTESIAN_POINT ( 'NONE',  ( 8.188874430227007600E-016, 1.640709488382370000E-017, -1.092739197465705300E-015 ) ) ;
#196 = DIRECTION ( 'NONE',  ( -1.252847536643030700E-015, -2.413031099211415300E-017, -1.000000000000000000 ) ) ;
#197 = DIRECTION ( 'NONE',  ( 1.000000000000000000, 2.631228568361280800E-014, -1.252847536643031500E-015 ) ) ;
#198 = DIRECTION ( 'NONE',  ( -1.000000000000000000, -2.631228568361280500E-014, -1.391625414721057700E-015 ) ) ;
#199 = DIRECTION ( 'NONE',  ( 1.000000000000000000, 2.631228568361279900E-014, 0.0000000000000000000 ) ) ;
#200 = DIRECTION ( 'NONE',  ( 1.252847536643030700E-015, 2.413031099211415300E-017, 1.000000000000000000 ) ) ;
#201 = CARTESIAN_POINT ( 'NONE',  ( 0.04800000000000517700, 1.518700289173656100E-015, 0.1399999999999988500 ) ) ;
#202 = CARTESIAN_POINT ( 'NONE',  ( -1.024176215593467500E-015, 2.557105763600782500E-016, 0.1399999999999987900 ) ) ;
#203 = CARTESIAN_POINT ( 'NONE',  ( 0.03400000000000727400, 1.735409960419733700E-015, 0.1699999999999976800 ) ) ;
#204 = DIRECTION ( 'NONE',  ( 1.000000000000000000, 2.631228568361280200E-014, 1.380989335032306900E-015 ) ) ;
#205 = DIRECTION ( 'NONE',  ( -1.252847536643030700E-015, -2.413031099211415300E-017, -1.000000000000000000 ) ) ;
#206 = CARTESIAN_POINT ( 'NONE',  ( 8.871836428643073900E-016, -3.078664633484921400E-016, 0.02999999999999763300 ) ) ;
#207 = CARTESIAN_POINT ( 'NONE',  ( -1.024176215593467500E-015, 2.557105763600782500E-016, 0.1399999999999987900 ) ) ;
#208 = DIRECTION ( 'NONE',  ( -1.252847536643030700E-015, -2.413031099211415300E-017, -1.000000000000000000 ) ) ;
#209 = DIRECTION ( 'NONE',  ( 1.000000000000000000, 2.631228568361280200E-014, 1.422837496699953200E-015 ) ) ;
#210 = DIRECTION ( 'NONE',  ( 1.252847536643030700E-015, 2.413031099211415300E-017, 1.000000000000000000 ) ) ;
#211 = CARTESIAN_POINT ( 'NONE',  ( 2.868440393347476500E-015, 8.366284480596805700E-016, 0.1699999999999976500 ) ) ;
#212 = DIRECTION ( 'NONE',  ( -1.252847536643030700E-015, -2.413031099211415300E-017, -1.000000000000000000 ) ) ;
#213 = DIRECTION ( 'NONE',  ( 1.000000000000000000, 2.631228568361280200E-014, 1.004355880023496000E-015 ) ) ;
#214 = CARTESIAN_POINT ( 'NONE',  ( -0.07800000000000721600, -1.215729835262383800E-015, 0.1699999999999975400 ) ) ;
#215 = DIRECTION ( 'NONE',  ( -1.252847536643030700E-015, -2.413031099211415300E-017, -1.000000000000000000 ) ) ;
#216 = DIRECTION ( 'NONE',  ( 1.000000000000000000, 2.631228568361280200E-014, 1.380989335032306900E-015 ) ) ;
#217 = CARTESIAN_POINT ( 'NONE',  ( 2.868440393347476500E-015, 8.366284480596805700E-016, 0.1699999999999976500 ) ) ;
#218 = DIRECTION ( 'NONE',  ( 0.7071067811866009700, 1.867512853449065100E-014, -0.7071067811864939500 ) ) ;
#219 = DIRECTION ( 'NONE',  ( -1.252847536643030700E-015, -2.413031099211415300E-017, -1.000000000000000000 ) ) ;
#220 = DIRECTION ( 'NONE',  ( 1.000000000000000000, 2.631228568361280200E-014, 1.422837496699953200E-015 ) ) ;
#221 = ORIENTED_EDGE ( 'NONE', *, *, #65, .T. ) ;
#222 = VERTEX_POINT ( 'NONE', #138 ) ;
#223 = ORIENTED_EDGE ( 'NONE', *, *, #60, .F. ) ;
#224 = ORIENTED_EDGE ( 'NONE', *, *, #57, .T. ) ;
#225 = ORIENTED_EDGE ( 'NONE', *, *, #56, .T. ) ;
#226 = ORIENTED_EDGE ( 'NONE', *, *, #46, .F. ) ;
#227 = ORIENTED_EDGE ( 'NONE', *, *, #47, .T. ) ;
#228 = ORIENTED_EDGE ( 'NONE', *, *, #52, .F. ) ;
#229 = LINE ( 'NONE', #214, #270 ) ;
#230 = ORIENTED_EDGE ( 'NONE', *, *, #51, .T. ) ;
#231 = EDGE_LOOP ( 'NONE', ( #251, #239, #278, #326 ) ) ;
#232 = VERTEX_POINT ( 'NONE', #142 ) ;
#233 = ORIENTED_EDGE ( 'NONE', *, *, #59, .F. ) ;
#234 = ORIENTED_EDGE ( 'NONE', *, *, #68, .F. ) ;
#235 = ORIENTED_EDGE ( 'NONE', *, *, #67, .T. ) ;
#236 = CIRCLE ( 'NONE', #40, 0.03000000000000000600 ) ;
#237 = VECTOR ( 'NONE', #215, 39.37007874015748100 ) ;
#238 = CIRCLE ( 'NONE', #28, 0.03400000000000440900 ) ;
#239 = ORIENTED_EDGE ( 'NONE', *, *, #45, .F. ) ;
#240 = CIRCLE ( 'NONE', #29, 0.04800000000000620400 ) ;
#241 = CIRCLE ( 'NONE', #53, 0.07800000000001008900 ) ;
#242 = CIRCLE ( 'NONE', #64, 0.04800000000000620400 ) ;
#243 = CIRCLE ( 'NONE', #42, 0.03400000000000440900 ) ;
#244 = EDGE_LOOP ( 'NONE', ( #317, #234, #250, #279 ) ) ;
#245 = FACE_OUTER_BOUND ( 'NONE', #309, .T. ) ;
#246 = ORIENTED_EDGE ( 'NONE', *, *, #54, .T. ) ;
#247 = ORIENTED_EDGE ( 'NONE', *, *, #50, .T. ) ;
#248 = ORIENTED_EDGE ( 'NONE', *, *, #58, .T. ) ;
#249 = ORIENTED_EDGE ( 'NONE', *, *, #66, .T. ) ;
#250 = ORIENTED_EDGE ( 'NONE', *, *, #55, .T. ) ;
#251 = ORIENTED_EDGE ( 'NONE', *, *, #57, .F. ) ;
#252 = VERTEX_POINT ( 'NONE', #135 ) ;
#253 = CLOSED_SHELL ( 'NONE', ( #79, #78, #77, #81, #85, #83, #80, #87, #88, #86, #84 ) ) ;
#254 = VERTEX_POINT ( 'NONE', #139 ) ;
#255 = ORIENTED_EDGE ( 'NONE', *, *, #49, .T. ) ;
#256 = ORIENTED_EDGE ( 'NONE', *, *, #68, .T. ) ;
#257 = VERTEX_POINT ( 'NONE', #137 ) ;
#258 = FACE_BOUND ( 'NONE', #311, .T. ) ;
#259 = TOROIDAL_SURFACE ( 'NONE', #38, 0.08065687750962381700, 0.04000000000000000100 ) ;
#260 = CYLINDRICAL_SURFACE ( 'NONE', #2, 0.03400000000000440900 ) ;
#261 = FACE_OUTER_BOUND ( 'NONE', #244, .T. ) ;
#262 = CYLINDRICAL_SURFACE ( 'NONE', #3, 0.07800000000001008900 ) ;
#263 = CYLINDRICAL_SURFACE ( 'NONE', #36, 0.07800000000001008900 ) ;
#264 = FACE_OUTER_BOUND ( 'NONE', #304, .T. ) ;
#265 = FACE_OUTER_BOUND ( 'NONE', #231, .T. ) ;
#266 = FACE_OUTER_BOUND ( 'NONE', #300, .T. ) ;
#267 = TOROIDAL_SURFACE ( 'NONE', #25, 0.04799999999999998700, 0.02999999999999999900 ) ;
#268 = FACE_OUTER_BOUND ( 'NONE', #308, .T. ) ;
#269 = FACE_OUTER_BOUND ( 'NONE', #299, .T. ) ;
#270 = VECTOR ( 'NONE', #212, 39.37007874015748100 ) ;
#271 = FACE_OUTER_BOUND ( 'NONE', #314, .T. ) ;
#272 = FACE_OUTER_BOUND ( 'NONE', #305, .T. ) ;
#273 = CONICAL_SURFACE ( 'NONE', #27, 0.06400000000000881400, 0.7853981633974536100 ) ;
#274 = FACE_OUTER_BOUND ( 'NONE', #313, .T. ) ;
#275 = TOROIDAL_SURFACE ( 'NONE', #22, 0.08065687750962381700, 0.04000000000000000100 ) ;
#276 = FACE_OUTER_BOUND ( 'NONE', #310, .T. ) ;
#277 = ORIENTED_EDGE ( 'NONE', *, *, #61, .F. ) ;
#278 = ORIENTED_EDGE ( 'NONE', *, *, #59, .T. ) ;
#279 = ORIENTED_EDGE ( 'NONE', *, *, #60, .T. ) ;
#280 = VERTEX_POINT ( 'NONE', #141 ) ;
#281 = VERTEX_POINT ( 'NONE', #134 ) ;
#282 = VERTEX_POINT ( 'NONE', #130 ) ;
#283 = CIRCLE ( 'NONE', #63, 0.03400000000000440900 ) ;
#284 = CIRCLE ( 'NONE', #41, 0.03000000000000000600 ) ;
#285 = VECTOR ( 'NONE', #218, 39.37007874015748900 ) ;
#286 = VECTOR ( 'NONE', #114, 39.37007874015748100 ) ;
#287 = LINE ( 'NONE', #167, #286 ) ;
#288 = LINE ( 'NONE', #90, #285 ) ;
#289 = LINE ( 'NONE', #166, #237 ) ;
#290 = CIRCLE ( 'NONE', #30, 0.05237260626216894100 ) ;
#291 = VECTOR ( 'NONE', #193, 39.37007874015748900 ) ;
#292 = CIRCLE ( 'NONE', #31, 0.04000000000000000100 ) ;
#293 = CIRCLE ( 'NONE', #33, 0.04000000000000000100 ) ;
#294 = CIRCLE ( 'NONE', #32, 0.03400000000000440900 ) ;
#295 = LINE ( 'NONE', #194, #291 ) ;
#296 = LINE ( 'NONE', #203, #298 ) ;
#297 = CIRCLE ( 'NONE', #34, 0.07800000000001008900 ) ;
#298 = VECTOR ( 'NONE', #101, 39.37007874015748100 ) ;
#299 = EDGE_LOOP ( 'NONE', ( #327, #224, #223, #233 ) ) ;
#300 = EDGE_LOOP ( 'NONE', ( #303, #301, #306, #256 ) ) ;
#301 = ORIENTED_EDGE ( 'NONE', *, *, #44, .T. ) ;
#302 = ORIENTED_EDGE ( 'NONE', *, *, #46, .T. ) ;
#303 = ORIENTED_EDGE ( 'NONE', *, *, #54, .F. ) ;
#304 = EDGE_LOOP ( 'NONE', ( #323, #226, #316, #318 ) ) ;
#305 = EDGE_LOOP ( 'NONE', ( #230, #246, #248, #277 ) ) ;
#306 = ORIENTED_EDGE ( 'NONE', *, *, #61, .T. ) ;
#307 = ORIENTED_EDGE ( 'NONE', *, *, #45, .T. ) ;
#308 = EDGE_LOOP ( 'NONE', ( #255, #249, #225, #321 ) ) ;
#309 = EDGE_LOOP ( 'NONE', ( #319, #325, #328, #228 ) ) ;
#310 = EDGE_LOOP ( 'NONE', ( #324, #221, #227, #322 ) ) ;
#311 = EDGE_LOOP ( 'NONE', ( #320, #315 ) ) ;
#312 = ORIENTED_EDGE ( 'NONE', *, *, #69, .T. ) ;
#313 = EDGE_LOOP ( 'NONE', ( #247, #235 ) ) ;
#314 = EDGE_LOOP ( 'NONE', ( #329, #302, #312, #307 ) ) ;
#315 = ORIENTED_EDGE ( 'NONE', *, *, #44, .F. ) ;
#316 = ORIENTED_EDGE ( 'NONE', *, *, #52, .T. ) ;
#317 = ORIENTED_EDGE ( 'NONE', *, *, #65, .F. ) ;
#318 = ORIENTED_EDGE ( 'NONE', *, *, #67, .F. ) ;
#319 = ORIENTED_EDGE ( 'NONE', *, *, #49, .F. ) ;
#320 = ORIENTED_EDGE ( 'NONE', *, *, #51, .F. ) ;
#321 = ORIENTED_EDGE ( 'NONE', *, *, #69, .F. ) ;
#322 = ORIENTED_EDGE ( 'NONE', *, *, #55, .F. ) ;
#323 = ORIENTED_EDGE ( 'NONE', *, *, #48, .F. ) ;
#324 = ORIENTED_EDGE ( 'NONE', *, *, #58, .F. ) ;
#325 = ORIENTED_EDGE ( 'NONE', *, *, #48, .T. ) ;
#326 = ORIENTED_EDGE ( 'NONE', *, *, #47, .F. ) ;
#327 = ORIENTED_EDGE ( 'NONE', *, *, #56, .F. ) ;
#328 = ORIENTED_EDGE ( 'NONE', *, *, #50, .F. ) ;
#329 = ORIENTED_EDGE ( 'NONE', *, *, #66, .F. ) ;
#330 = TOROIDAL_SURFACE ( 'NONE', #24, 0.04799999999999998700, 0.02999999999999999900 ) ;
#331 = VERTEX_POINT ( 'NONE', #133 ) ;
#332 = APPROVAL_DATE_TIME ( #334, #7 ) ;
#333 = VERTEX_POINT ( 'NONE', #136 ) ;
#334 = DATE_AND_TIME ( #335, #336 ) ;
#335 = CALENDAR_DATE ( 2013, 12, 11 ) ;
#336 = LOCAL_TIME ( 8, 44, 1.000000000000000000, #337 ) ;
#337 = COORDINATED_UNIVERSAL_TIME_OFFSET ( 5, 0, .BEHIND. ) ;
#338 = APPROVAL_PERSON_ORGANIZATION ( #339, #7, #89 ) ;
#339 = PERSON_AND_ORGANIZATION ( #73, #369 ) ;
#340 = DATE_AND_TIME ( #341, #342 ) ;
#341 = CALENDAR_DATE ( 2013, 12, 11 ) ;
#342 = LOCAL_TIME ( 8, 44, 1.000000000000000000, #343 ) ;
#343 = COORDINATED_UNIVERSAL_TIME_OFFSET ( 5, 0, .BEHIND. ) ;
#344 = PERSON_AND_ORGANIZATION ( #73, #369 ) ;
#345 = PERSON_AND_ORGANIZATION ( #73, #369 ) ;
#346 = PERSON_AND_ORGANIZATION ( #73, #369 ) ;
#347 = APPROVAL_DATE_TIME ( #348, #14 ) ;
#348 = DATE_AND_TIME ( #349, #350 ) ;
#349 = CALENDAR_DATE ( 2013, 12, 11 ) ;
#350 = LOCAL_TIME ( 8, 44, 1.000000000000000000, #351 ) ;
#351 = COORDINATED_UNIVERSAL_TIME_OFFSET ( 5, 0, .BEHIND. ) ;
#352 = APPROVAL_PERSON_ORGANIZATION ( #353, #14, #102 ) ;
#353 = PERSON_AND_ORGANIZATION ( #73, #369 ) ;
#354 = DATE_AND_TIME ( #355, #356 ) ;
#355 = CALENDAR_DATE ( 2013, 12, 11 ) ;
#356 = LOCAL_TIME ( 8, 44, 1.000000000000000000, #357 ) ;
#357 = COORDINATED_UNIVERSAL_TIME_OFFSET ( 5, 0, .BEHIND. ) ;
#358 = PERSON_AND_ORGANIZATION ( #73, #369 ) ;
#359 = APPROVAL_DATE_TIME ( #360, #19 ) ;
#360 = DATE_AND_TIME ( #361, #363 ) ;
#361 = CALENDAR_DATE ( 2013, 12, 11 ) ;
#362 = CIRCLE ( 'NONE', #1, 0.05237260626216894100 ) ;
#363 = LOCAL_TIME ( 8, 44, 1.000000000000000000, #364 ) ;
#364 = COORDINATED_UNIVERSAL_TIME_OFFSET ( 5, 0, .BEHIND. ) ;
#365 = APPROVAL_PERSON_ORGANIZATION ( #367, #19, #111 ) ;
#366 = VERTEX_POINT ( 'NONE', #128 ) ;
#367 = PERSON_AND_ORGANIZATION ( #73, #369 ) ;
#368 = PERSON_AND_ORGANIZATION ( #73, #369 ) ;
#369 = ORGANIZATION ( 'UNSPECIFIED', 'UNSPECIFIED', '' ) ;
#370 = CYLINDRICAL_SURFACE ( 'NONE', #26, 0.03400000000000440900 ) ;
#371 = CIRCLE ( 'NONE', #39, 0.07800000000001008900 ) ;
#372 = LENGTH_MEASURE_WITH_UNIT ( LENGTH_MEASURE( 0.02539999999999999900 ), #127 );
#373 = SHAPE_DEFINITION_REPRESENTATION ( #75, #70 ) ;
#374 = CONICAL_SURFACE ( 'NONE', #37, 0.06400000000000881400, 0.7853981633974536100 ) ;
#375 = CIRCLE ( 'NONE', #62, 0.07800000000001008900 ) ;
#376 = VERTEX_POINT ( 'NONE', #132 ) ;
ENDSEC;
END-ISO-10303-21;
