ISO-10303-21;
HEADER;
FILE_DESCRIPTION (( 'STEP AP203' ),
    '1' );
FILE_NAME ('A1429-4-C.STEP',
    '2013-11-12T13:43:46',
    ( '' ),
    ( '' ),
    'SwSTEP 2.0',
    'SolidWorks 2012',
    '' );
FILE_SCHEMA (( 'CONFIG_CONTROL_DESIGN' ));
ENDSEC;

DATA;
#1 = PRODUCT_DEFINITION_FORMATION_WITH_SPECIFIED_SOURCE ( 'ANY', '', #61, .NOT_KNOWN. ) ;
#2 = CC_DESIGN_APPROVAL ( #12, ( #1 ) ) ;
#3 = PRODUCT_RELATED_PRODUCT_CATEGORY ( 'detail', '', ( #61 ) ) ;
#4 = CC_DESIGN_SECURITY_CLASSIFICATION ( #9, ( #1 ) ) ;
#5 = CC_DESIGN_APPROVAL ( #6, ( #9 ) ) ;
#6 = APPROVAL ( #95, 'UNSPECIFIED' ) ;
#7 = CC_DESIGN_DATE_AND_TIME_ASSIGNMENT ( #274, #96, ( #9 ) ) ;
#8 = CC_DESIGN_PERSON_AND_ORGANIZATION_ASSIGNMENT ( #199, #97, ( #9 ) ) ;
#9 = SECURITY_CLASSIFICATION ( '', '', #98 ) ;
#10 = CC_DESIGN_PERSON_AND_ORGANIZATION_ASSIGNMENT ( #197, #99, ( #1 ) ) ;
#11 = CC_DESIGN_PERSON_AND_ORGANIZATION_ASSIGNMENT ( #198, #101, ( #1 ) ) ;
#12 = APPROVAL ( #103, 'UNSPECIFIED' ) ;
#13 = CC_DESIGN_DATE_AND_TIME_ASSIGNMENT ( #205, #105, ( #17 ) ) ;
#14 = CC_DESIGN_PERSON_AND_ORGANIZATION_ASSIGNMENT ( #209, #106, ( #17 ) ) ;
#15 = CC_DESIGN_APPROVAL ( #16, ( #17 ) ) ;
#16 = APPROVAL ( #108, 'UNSPECIFIED' ) ;
#17 = PRODUCT_DEFINITION ( 'UNKNOWN', '', #1, #62 ) ;
#18 = CC_DESIGN_PERSON_AND_ORGANIZATION_ASSIGNMENT ( #206, #113, ( #61 ) ) ;
#19 = AXIS2_PLACEMENT_3D ( 'NONE', #139, #142, #116 ) ;
#20 =( GEOMETRIC_REPRESENTATION_CONTEXT ( 3 ) GLOBAL_UNCERTAINTY_ASSIGNED_CONTEXT ( ( #59 ) ) GLOBAL_UNIT_ASSIGNED_CONTEXT ( ( #128, #125, #124 ) ) REPRESENTATION_CONTEXT ( 'NONE', 'WORKASPACE' ) );
#21 = EDGE_CURVE ( 'NONE', #224, #241, #258, .T. ) ;
#22 = EDGE_CURVE ( 'NONE', #242, #245, #276, .T. ) ;
#23 = EDGE_CURVE ( 'NONE', #180, #224, #262, .T. ) ;
#24 = EDGE_CURVE ( 'NONE', #180, #220, #256, .T. ) ;
#25 = AXIS2_PLACEMENT_3D ( 'NONE', #165, #166, #159 ) ;
#26 = EDGE_CURVE ( 'NONE', #268, #224, #257, .T. ) ;
#27 = EDGE_CURVE ( 'NONE', #268, #184, #261, .T. ) ;
#28 = EDGE_CURVE ( 'NONE', #241, #220, #260, .T. ) ;
#29 = EDGE_CURVE ( 'NONE', #184, #180, #263, .T. ) ;
#30 = EDGE_CURVE ( 'NONE', #245, #220, #265, .T. ) ;
#31 = AXIS2_PLACEMENT_3D ( 'NONE', #88, #155, #130 ) ;
#32 = EDGE_CURVE ( 'NONE', #220, #241, #264, .T. ) ;
#33 = AXIS2_PLACEMENT_3D ( 'NONE', #127, #120, #144 ) ;
#34 = AXIS2_PLACEMENT_3D ( 'NONE', #174, #150, #100 ) ;
#35 = AXIS2_PLACEMENT_3D ( 'NONE', #135, #172, #86 ) ;
#36 = AXIS2_PLACEMENT_3D ( 'NONE', #73, #83, #118 ) ;
#37 = AXIS2_PLACEMENT_3D ( 'NONE', #79, #77, #76 ) ;
#38 = AXIS2_PLACEMENT_3D ( 'NONE', #146, #145, #141 ) ;
#39 = AXIS2_PLACEMENT_3D ( 'NONE', #126, #123, #122 ) ;
#40 = AXIS2_PLACEMENT_3D ( 'NONE', #138, #133, #132 ) ;
#41 = AXIS2_PLACEMENT_3D ( 'NONE', #111, #110, #93 ) ;
#42 = AXIS2_PLACEMENT_3D ( 'NONE', #167, #87, #164 ) ;
#43 = AXIS2_PLACEMENT_3D ( 'NONE', #92, #90, #89 ) ;
#44 = AXIS2_PLACEMENT_3D ( 'NONE', #78, #84, #82 ) ;
#45 = AXIS2_PLACEMENT_3D ( 'NONE', #154, #157, #151 ) ;
#46 = AXIS2_PLACEMENT_3D ( 'NONE', #91, #117, #114 ) ;
#47 = AXIS2_PLACEMENT_3D ( 'NONE', #152, #153, #147 ) ;
#48 = AXIS2_PLACEMENT_3D ( 'NONE', #156, #160, #161 ) ;
#49 = AXIS2_PLACEMENT_3D ( 'NONE', #169, #171, #81 ) ;
#50 = EDGE_CURVE ( 'NONE', #268, #242, #269, .T. ) ;
#51 = EDGE_CURVE ( 'NONE', #242, #241, #233, .T. ) ;
#52 = EDGE_CURVE ( 'NONE', #245, #242, #270, .T. ) ;
#53 = AXIS2_PLACEMENT_3D ( 'NONE', #163, #162, #158 ) ;
#54 = EDGE_CURVE ( 'NONE', #184, #268, #255, .T. ) ;
#55 = EDGE_CURVE ( 'NONE', #224, #180, #212, .T. ) ;
#56 = EDGE_CURVE ( 'NONE', #184, #245, #213, .T. ) ;
#57 = ADVANCED_BREP_SHAPE_REPRESENTATION ( 'A1429-4-C', ( #58, #19 ), #20 ) ;
#58 = MANIFOLD_SOLID_BREP ( 'Revolve1', #294 ) ;
#59 = UNCERTAINTY_MEASURE_WITH_UNIT (LENGTH_MEASURE( 1.000000000000000100E-005 ), #128, 'distance_accuracy_value', 'NONE');
#60 = PERSON ( 'UNSPECIFIED', 'UNSPECIFIED', 'UNSPECIFIED', ('UNSPECIFIED'), ('UNSPECIFIED'), ('UNSPECIFIED') ) ;
#61 = PRODUCT ( 'A1429-4-C', 'A1429-4-C', '', ( #115 ) ) ;
#62 = DESIGN_CONTEXT ( 'detailed design', #112, 'design' ) ;
#63 = PRODUCT_DEFINITION_SHAPE ( 'NONE', 'NONE',  #17 ) ;
#64 = ADVANCED_FACE ( 'NONE', ( #225 ), #227, .F. ) ;
#65 = ADVANCED_FACE ( 'NONE', ( #273 ), #252, .T. ) ;
#66 = ADVANCED_FACE ( 'NONE', ( #293 ), #251, .T. ) ;
#67 = ADVANCED_FACE ( 'NONE', ( #290 ), #230, .F. ) ;
#68 = DIMENSIONAL_EXPONENTS ( 1.000000000000000000, 0.0000000000000000000, 0.0000000000000000000, 0.0000000000000000000, 0.0000000000000000000, 0.0000000000000000000, 0.0000000000000000000 ) ;
#69 = ADVANCED_FACE ( 'NONE', ( #250 ), #226, .T. ) ;
#70 = ADVANCED_FACE ( 'NONE', ( #249 ), #248, .F. ) ;
#71 = ADVANCED_FACE ( 'NONE', ( #247 ), #253, .F. ) ;
#72 = ADVANCED_FACE ( 'NONE', ( #246 ), #254, .T. ) ;
#73 = CARTESIAN_POINT ( 'NONE',  ( 0.0000000000000000000, 0.0000000000000000000, 0.0000000000000000000 ) ) ;
#74 = DIRECTION ( 'NONE',  ( -0.0000000000000000000, -0.0000000000000000000, -1.000000000000000000 ) ) ;
#75 = CARTESIAN_POINT ( 'NONE',  ( 0.1194999999999999800, 1.463452924981086900E-017, 0.0000000000000000000 ) ) ;
#76 = DIRECTION ( 'NONE',  ( -1.000000000000000000, 0.0000000000000000000, 0.0000000000000000000 ) ) ;
#77 = DIRECTION ( 'NONE',  ( -0.0000000000000000000, -0.0000000000000000000, -1.000000000000000000 ) ) ;
#78 = CARTESIAN_POINT ( 'NONE',  ( 0.0000000000000000000, 0.0000000000000000000, -0.006037351468754274800 ) ) ;
#79 = CARTESIAN_POINT ( 'NONE',  ( 0.0000000000000000000, 0.0000000000000000000, 0.2539626485312457300 ) ) ;
#80 = CARTESIAN_POINT ( 'NONE',  ( -0.1194999999999999800, 0.0000000000000000000, 0.0000000000000000000 ) ) ;
#81 = DIRECTION ( 'NONE',  ( -1.000000000000000000, 0.0000000000000000000, 0.0000000000000000000 ) ) ;
#82 = DIRECTION ( 'NONE',  ( -1.000000000000000000, 0.0000000000000000000, 0.0000000000000000000 ) ) ;
#83 = DIRECTION ( 'NONE',  ( -0.0000000000000000000, -0.0000000000000000000, -1.000000000000000000 ) ) ;
#84 = DIRECTION ( 'NONE',  ( -0.0000000000000000000, -0.0000000000000000000, -1.000000000000000000 ) ) ;
#85 = DIRECTION ( 'NONE',  ( -0.0000000000000000000, -0.0000000000000000000, -1.000000000000000000 ) ) ;
#86 = DIRECTION ( 'NONE',  ( -1.000000000000000000, 0.0000000000000000000, 0.0000000000000000000 ) ) ;
#87 = DIRECTION ( 'NONE',  ( -0.0000000000000000000, -0.0000000000000000000, -1.000000000000000000 ) ) ;
#88 = CARTESIAN_POINT ( 'NONE',  ( -0.05349999999999997100, 0.0000000000000000000, 0.07496264853124573500 ) ) ;
#89 = DIRECTION ( 'NONE',  ( -1.000000000000000000, -1.224646799147353000E-016, 0.0000000000000000000 ) ) ;
#90 = DIRECTION ( 'NONE',  ( -1.224646799147353200E-016, 1.000000000000000000, 0.0000000000000000000 ) ) ;
#91 = CARTESIAN_POINT ( 'NONE',  ( 0.0000000000000000000, 0.0000000000000000000, 0.0000000000000000000 ) ) ;
#92 = CARTESIAN_POINT ( 'NONE',  ( 0.04996864357832258400, 6.119393941592769200E-018, 0.3379054294844740000 ) ) ;
#93 = DIRECTION ( 'NONE',  ( -1.000000000000000000, 0.0000000000000000000, 0.0000000000000000000 ) ) ;
#94 = APPROVAL_ROLE ( '' ) ;
#95 = APPROVAL_STATUS ( 'not_yet_approved' ) ;
#96 = DATE_TIME_ROLE ( 'classification_date' ) ;
#97 = PERSON_AND_ORGANIZATION_ROLE ( 'classification_officer' ) ;
#98 = SECURITY_CLASSIFICATION_LEVEL ( 'unclassified' ) ;
#99 = PERSON_AND_ORGANIZATION_ROLE ( 'design_supplier' ) ;
#100 = DIRECTION ( 'NONE',  ( -1.000000000000000000, -1.224646799147353200E-016, 0.0000000000000000000 ) ) ;
#101 = PERSON_AND_ORGANIZATION_ROLE ( 'creator' ) ;
#102 = APPROVAL_ROLE ( '' ) ;
#103 = APPROVAL_STATUS ( 'not_yet_approved' ) ;
#104 = CARTESIAN_POINT ( 'NONE',  ( 0.05349999999999997100, 6.551860375438335900E-018, 0.0000000000000000000 ) ) ;
#105 = DATE_TIME_ROLE ( 'creation_date' ) ;
#106 = PERSON_AND_ORGANIZATION_ROLE ( 'creator' ) ;
#107 = APPROVAL_ROLE ( '' ) ;
#108 = APPROVAL_STATUS ( 'not_yet_approved' ) ;
#109 = APPLICATION_PROTOCOL_DEFINITION ( 'international standard', 'config_control_design', 1994, #112 ) ;
#110 = DIRECTION ( 'NONE',  ( -0.0000000000000000000, -0.0000000000000000000, -1.000000000000000000 ) ) ;
#111 = CARTESIAN_POINT ( 'NONE',  ( 0.0000000000000000000, 0.0000000000000000000, 0.02800522100375015000 ) ) ;
#112 = APPLICATION_CONTEXT ( 'configuration controlled 3d designs of mechanical parts and assemblies' ) ;
#113 = PERSON_AND_ORGANIZATION_ROLE ( 'design_owner' ) ;
#114 = DIRECTION ( 'NONE',  ( -1.000000000000000000, 0.0000000000000000000, 0.0000000000000000000 ) ) ;
#115 = MECHANICAL_CONTEXT ( 'NONE', #119, 'mechanical' ) ;
#116 = DIRECTION ( 'NONE',  ( 1.000000000000000000, 0.0000000000000000000, 0.0000000000000000000 ) ) ;
#117 = DIRECTION ( 'NONE',  ( -0.0000000000000000000, -0.0000000000000000000, -1.000000000000000000 ) ) ;
#118 = DIRECTION ( 'NONE',  ( -1.000000000000000000, 0.0000000000000000000, 0.0000000000000000000 ) ) ;
#119 = APPLICATION_CONTEXT ( 'configuration controlled 3d designs of mechanical parts and assemblies' ) ;
#120 = DIRECTION ( 'NONE',  ( -0.0000000000000000000, -0.0000000000000000000, -1.000000000000000000 ) ) ;
#121 = APPLICATION_PROTOCOL_DEFINITION ( 'international standard', 'config_control_design', 1994, #119 ) ;
#122 = DIRECTION ( 'NONE',  ( -1.000000000000000000, 0.0000000000000000000, 0.0000000000000000000 ) ) ;
#123 = DIRECTION ( 'NONE',  ( -0.0000000000000000000, -0.0000000000000000000, -1.000000000000000000 ) ) ;
#124 =( NAMED_UNIT ( * ) SI_UNIT ( $, .STERADIAN. ) SOLID_ANGLE_UNIT ( ) );
#125 =( NAMED_UNIT ( * ) PLANE_ANGLE_UNIT ( ) SI_UNIT ( $, .RADIAN. ) );
#126 = CARTESIAN_POINT ( 'NONE',  ( 0.0000000000000000000, 0.0000000000000000000, 0.2539626485312457300 ) ) ;
#127 = CARTESIAN_POINT ( 'NONE',  ( 0.0000000000000000000, 0.0000000000000000000, 0.2289626485312457000 ) ) ;
#128 =( CONVERSION_BASED_UNIT ( 'INCH', #185 ) LENGTH_UNIT ( ) NAMED_UNIT ( #68 ) );
#129 =( LENGTH_UNIT ( ) NAMED_UNIT ( * ) SI_UNIT ( $, .METRE. ) );
#130 = DIRECTION ( 'NONE',  ( 0.0000000000000000000, 0.0000000000000000000, -1.000000000000000000 ) ) ;
#131 = CARTESIAN_POINT ( 'NONE',  ( 0.05349999999999997100, 1.059319481262460200E-017, 0.2289626485312457000 ) ) ;
#132 = DIRECTION ( 'NONE',  ( -1.000000000000000000, 0.0000000000000000000, 0.0000000000000000000 ) ) ;
#133 = DIRECTION ( 'NONE',  ( -0.0000000000000000000, -0.0000000000000000000, -1.000000000000000000 ) ) ;
#134 = CARTESIAN_POINT ( 'NONE',  ( -0.05349999999999997100, 0.0000000000000000000, -0.006037351468754274800 ) ) ;
#135 = CARTESIAN_POINT ( 'NONE',  ( 0.0000000000000000000, 0.0000000000000000000, 0.02800522100375015000 ) ) ;
#136 = CARTESIAN_POINT ( 'NONE',  ( -0.05349999999999997100, 0.0000000000000000000, 0.2289626485312457000 ) ) ;
#137 = CARTESIAN_POINT ( 'NONE',  ( 0.05349999999999997100, 1.059319481262460200E-017, -0.006037351468754274800 ) ) ;
#138 = CARTESIAN_POINT ( 'NONE',  ( 0.0000000000000000000, 0.0000000000000000000, 0.2289626485312457000 ) ) ;
#139 = CARTESIAN_POINT ( 'NONE',  ( 0.0000000000000000000, 0.0000000000000000000, 0.0000000000000000000 ) ) ;
#140 = CARTESIAN_POINT ( 'NONE',  ( -0.1194999999999999700, 0.0000000000000000000, 0.02800522100375015000 ) ) ;
#141 = DIRECTION ( 'NONE',  ( 0.0000000000000000000, 0.0000000000000000000, -1.000000000000000000 ) ) ;
#142 = DIRECTION ( 'NONE',  ( 0.0000000000000000000, 0.0000000000000000000, 1.000000000000000000 ) ) ;
#143 = CARTESIAN_POINT ( 'NONE',  ( 0.1195000000000000000, 1.463452924981086900E-017, 0.2539626485312457300 ) ) ;
#144 = DIRECTION ( 'NONE',  ( -1.000000000000000000, 0.0000000000000000000, 0.0000000000000000000 ) ) ;
#145 = DIRECTION ( 'NONE',  ( 0.0000000000000000000, -1.000000000000000000, 0.0000000000000000000 ) ) ;
#146 = CARTESIAN_POINT ( 'NONE',  ( -0.04996864357832258400, 0.0000000000000000000, 0.3379054294844740000 ) ) ;
#147 = DIRECTION ( 'NONE',  ( -1.000000000000000000, 0.0000000000000000000, 0.0000000000000000000 ) ) ;
#148 = CARTESIAN_POINT ( 'NONE',  ( 0.1194999999999999700, 1.463452924981086600E-017, 0.02800522100375015000 ) ) ;
#149 = CARTESIAN_POINT ( 'NONE',  ( -0.1195000000000000000, 0.0000000000000000000, 0.2539626485312457300 ) ) ;
#150 = DIRECTION ( 'NONE',  ( -1.224646799147353200E-016, 1.000000000000000000, 0.0000000000000000000 ) ) ;
#151 = DIRECTION ( 'NONE',  ( -1.000000000000000000, 0.0000000000000000000, 0.0000000000000000000 ) ) ;
#152 = CARTESIAN_POINT ( 'NONE',  ( 0.0000000000000000000, 0.0000000000000000000, 0.07496264853124573500 ) ) ;
#153 = DIRECTION ( 'NONE',  ( -0.0000000000000000000, -0.0000000000000000000, -1.000000000000000000 ) ) ;
#154 = CARTESIAN_POINT ( 'NONE',  ( 0.0000000000000000000, 0.0000000000000000000, 0.3379054294844740000 ) ) ;
#155 = DIRECTION ( 'NONE',  ( 0.0000000000000000000, -1.000000000000000000, 0.0000000000000000000 ) ) ;
#156 = CARTESIAN_POINT ( 'NONE',  ( 0.0000000000000000000, 0.0000000000000000000, 0.0000000000000000000 ) ) ;
#157 = DIRECTION ( 'NONE',  ( -0.0000000000000000000, -0.0000000000000000000, -1.000000000000000000 ) ) ;
#158 = DIRECTION ( 'NONE',  ( -1.000000000000000000, 0.0000000000000000000, 0.0000000000000000000 ) ) ;
#159 = DIRECTION ( 'NONE',  ( -1.000000000000000000, 0.0000000000000000000, 0.0000000000000000000 ) ) ;
#160 = DIRECTION ( 'NONE',  ( -0.0000000000000000000, -0.0000000000000000000, -1.000000000000000000 ) ) ;
#161 = DIRECTION ( 'NONE',  ( -1.000000000000000000, 0.0000000000000000000, 0.0000000000000000000 ) ) ;
#162 = DIRECTION ( 'NONE',  ( -0.0000000000000000000, -0.0000000000000000000, -1.000000000000000000 ) ) ;
#163 = CARTESIAN_POINT ( 'NONE',  ( 0.0000000000000000000, 0.0000000000000000000, -0.006037351468754274800 ) ) ;
#164 = DIRECTION ( 'NONE',  ( -1.000000000000000000, 0.0000000000000000000, 0.0000000000000000000 ) ) ;
#165 = CARTESIAN_POINT ( 'NONE',  ( 0.0000000000000000000, 0.0000000000000000000, 0.07496264853124573500 ) ) ;
#166 = DIRECTION ( 'NONE',  ( -0.0000000000000000000, -0.0000000000000000000, -1.000000000000000000 ) ) ;
#167 = CARTESIAN_POINT ( 'NONE',  ( 0.0000000000000000000, 0.0000000000000000000, 0.3379054294844740000 ) ) ;
#168 = DIRECTION ( 'NONE',  ( -0.0000000000000000000, -0.0000000000000000000, -1.000000000000000000 ) ) ;
#169 = CARTESIAN_POINT ( 'NONE',  ( 0.0000000000000000000, 0.0000000000000000000, 0.0000000000000000000 ) ) ;
#170 = CARTESIAN_POINT ( 'NONE',  ( -0.05349999999999997100, 0.0000000000000000000, 0.0000000000000000000 ) ) ;
#171 = DIRECTION ( 'NONE',  ( -0.0000000000000000000, -0.0000000000000000000, -1.000000000000000000 ) ) ;
#172 = DIRECTION ( 'NONE',  ( -0.0000000000000000000, -0.0000000000000000000, -1.000000000000000000 ) ) ;
#173 = DIRECTION ( 'NONE',  ( -0.0000000000000000000, -0.0000000000000000000, -1.000000000000000000 ) ) ;
#174 = CARTESIAN_POINT ( 'NONE',  ( 0.05349999999999997100, 6.551860375438335900E-018, 0.07496264853124573500 ) ) ;
#175 = ORIENTED_EDGE ( 'NONE', *, *, #24, .F. ) ;
#176 = ORIENTED_EDGE ( 'NONE', *, *, #27, .F. ) ;
#177 = ORIENTED_EDGE ( 'NONE', *, *, #50, .F. ) ;
#178 = ORIENTED_EDGE ( 'NONE', *, *, #29, .F. ) ;
#179 = ORIENTED_EDGE ( 'NONE', *, *, #30, .T. ) ;
#180 = VERTEX_POINT ( 'NONE', #148 ) ;
#181 = ORIENTED_EDGE ( 'NONE', *, *, #24, .T. ) ;
#182 = ORIENTED_EDGE ( 'NONE', *, *, #32, .F. ) ;
#183 = ORIENTED_EDGE ( 'NONE', *, *, #52, .T. ) ;
#184 = VERTEX_POINT ( 'NONE', #143 ) ;
#185 = LENGTH_MEASURE_WITH_UNIT ( LENGTH_MEASURE( 0.02539999999999999900 ), #129 );
#186 = ORIENTED_EDGE ( 'NONE', *, *, #26, .F. ) ;
#187 = ORIENTED_EDGE ( 'NONE', *, *, #54, .T. ) ;
#188 = DATE_AND_TIME ( #192, #200 ) ;
#189 = ORIENTED_EDGE ( 'NONE', *, *, #32, .T. ) ;
#190 = VECTOR ( 'NONE', #173, 39.37007874015748100 ) ;
#191 = ORIENTED_EDGE ( 'NONE', *, *, #54, .F. ) ;
#192 = CALENDAR_DATE ( 2013, 12, 11 ) ;
#193 = COORDINATED_UNIVERSAL_TIME_OFFSET ( 5, 0, .BEHIND. ) ;
#194 = PERSON_AND_ORGANIZATION ( #60, #210 ) ;
#195 = ORIENTED_EDGE ( 'NONE', *, *, #23, .T. ) ;
#196 = APPROVAL_DATE_TIME ( #188, #12 ) ;
#197 = PERSON_AND_ORGANIZATION ( #60, #210 ) ;
#198 = PERSON_AND_ORGANIZATION ( #60, #210 ) ;
#199 = PERSON_AND_ORGANIZATION ( #60, #210 ) ;
#200 = LOCAL_TIME ( 8, 43, 46.00000000000000000, #193 ) ;
#201 = CALENDAR_DATE ( 2013, 12, 11 ) ;
#202 = COORDINATED_UNIVERSAL_TIME_OFFSET ( 5, 0, .BEHIND. ) ;
#203 = LOCAL_TIME ( 8, 43, 46.00000000000000000, #204 ) ;
#204 = COORDINATED_UNIVERSAL_TIME_OFFSET ( 5, 0, .BEHIND. ) ;
#205 = DATE_AND_TIME ( #201, #203 ) ;
#206 = PERSON_AND_ORGANIZATION ( #60, #210 ) ;
#207 = APPROVAL_PERSON_ORGANIZATION ( #211, #16, #107 ) ;
#208 = SHAPE_DEFINITION_REPRESENTATION ( #63, #57 ) ;
#209 = PERSON_AND_ORGANIZATION ( #60, #210 ) ;
#210 = ORGANIZATION ( 'UNSPECIFIED', 'UNSPECIFIED', '' ) ;
#211 = PERSON_AND_ORGANIZATION ( #60, #210 ) ;
#212 = CIRCLE ( 'NONE', #41, 0.1194999999999999700 ) ;
#213 = CIRCLE ( 'NONE', #43, 0.1090000000000000400 ) ;
#214 = DATE_AND_TIME ( #216, #217 ) ;
#215 = APPROVAL_DATE_TIME ( #214, #16 ) ;
#216 = CALENDAR_DATE ( 2013, 12, 11 ) ;
#217 = LOCAL_TIME ( 8, 43, 46.00000000000000000, #218 ) ;
#218 = COORDINATED_UNIVERSAL_TIME_OFFSET ( 5, 0, .BEHIND. ) ;
#219 = ORIENTED_EDGE ( 'NONE', *, *, #52, .F. ) ;
#220 = VERTEX_POINT ( 'NONE', #137 ) ;
#221 = ORIENTED_EDGE ( 'NONE', *, *, #30, .F. ) ;
#222 = DATE_AND_TIME ( #292, #291 ) ;
#223 = ORIENTED_EDGE ( 'NONE', *, *, #23, .F. ) ;
#224 = VERTEX_POINT ( 'NONE', #140 ) ;
#225 = FACE_OUTER_BOUND ( 'NONE', #284, .T. ) ;
#226 = TOROIDAL_SURFACE ( 'NONE', #25, 0.05349999999999997100, 0.08100000000000000300 ) ;
#227 = CYLINDRICAL_SURFACE ( 'NONE', #46, 0.05349999999999997100 ) ;
#228 = VECTOR ( 'NONE', #168, 39.37007874015748100 ) ;
#229 = CALENDAR_DATE ( 2013, 12, 11 ) ;
#230 = TOROIDAL_SURFACE ( 'NONE', #42, 0.04996864357832258400, 0.1090000000000000400 ) ;
#231 = ORIENTED_EDGE ( 'NONE', *, *, #22, .T. ) ;
#232 = ORIENTED_EDGE ( 'NONE', *, *, #21, .T. ) ;
#233 = LINE ( 'NONE', #170, #228 ) ;
#234 = ORIENTED_EDGE ( 'NONE', *, *, #56, .T. ) ;
#235 = ORIENTED_EDGE ( 'NONE', *, *, #51, .T. ) ;
#236 = ORIENTED_EDGE ( 'NONE', *, *, #50, .T. ) ;
#237 = ORIENTED_EDGE ( 'NONE', *, *, #28, .T. ) ;
#238 = APPROVAL_DATE_TIME ( #222, #6 ) ;
#239 = PERSON_AND_ORGANIZATION ( #60, #210 ) ;
#240 = ORIENTED_EDGE ( 'NONE', *, *, #28, .F. ) ;
#241 = VERTEX_POINT ( 'NONE', #134 ) ;
#242 = VERTEX_POINT ( 'NONE', #136 ) ;
#243 = LOCAL_TIME ( 8, 43, 46.00000000000000000, #202 ) ;
#244 = APPROVAL_PERSON_ORGANIZATION ( #194, #12, #102 ) ;
#245 = VERTEX_POINT ( 'NONE', #131 ) ;
#246 = FACE_OUTER_BOUND ( 'NONE', #267, .T. ) ;
#247 = FACE_OUTER_BOUND ( 'NONE', #283, .T. ) ;
#248 = CYLINDRICAL_SURFACE ( 'NONE', #48, 0.05349999999999997100 ) ;
#249 = FACE_OUTER_BOUND ( 'NONE', #275, .T. ) ;
#250 = FACE_OUTER_BOUND ( 'NONE', #287, .T. ) ;
#251 = CYLINDRICAL_SURFACE ( 'NONE', #49, 0.1194999999999999800 ) ;
#252 = CYLINDRICAL_SURFACE ( 'NONE', #36, 0.1194999999999999800 ) ;
#253 = TOROIDAL_SURFACE ( 'NONE', #45, 0.04996864357832258400, 0.1090000000000000400 ) ;
#254 = TOROIDAL_SURFACE ( 'NONE', #47, 0.05349999999999997100, 0.08100000000000000300 ) ;
#255 = CIRCLE ( 'NONE', #39, 0.1194999999999999800 ) ;
#256 = CIRCLE ( 'NONE', #34, 0.08100000000000000300 ) ;
#257 = LINE ( 'NONE', #80, #259 ) ;
#258 = CIRCLE ( 'NONE', #31, 0.08100000000000000300 ) ;
#259 = VECTOR ( 'NONE', #85, 39.37007874015748100 ) ;
#260 = CIRCLE ( 'NONE', #44, 0.05349999999999997100 ) ;
#261 = CIRCLE ( 'NONE', #37, 0.1194999999999999800 ) ;
#262 = CIRCLE ( 'NONE', #35, 0.1194999999999999700 ) ;
#263 = LINE ( 'NONE', #75, #266 ) ;
#264 = CIRCLE ( 'NONE', #53, 0.05349999999999997100 ) ;
#265 = LINE ( 'NONE', #104, #190 ) ;
#266 = VECTOR ( 'NONE', #74, 39.37007874015748100 ) ;
#267 = EDGE_LOOP ( 'NONE', ( #175, #195, #232, #182 ) ) ;
#268 = VERTEX_POINT ( 'NONE', #149 ) ;
#269 = CIRCLE ( 'NONE', #38, 0.1090000000000000600 ) ;
#270 = CIRCLE ( 'NONE', #40, 0.05349999999999997100 ) ;
#271 = ORIENTED_EDGE ( 'NONE', *, *, #56, .F. ) ;
#272 = ORIENTED_EDGE ( 'NONE', *, *, #22, .F. ) ;
#273 = FACE_OUTER_BOUND ( 'NONE', #289, .T. ) ;
#274 = DATE_AND_TIME ( #229, #243 ) ;
#275 = EDGE_LOOP ( 'NONE', ( #221, #272, #235, #237 ) ) ;
#276 = CIRCLE ( 'NONE', #33, 0.05349999999999997100 ) ;
#277 = ORIENTED_EDGE ( 'NONE', *, *, #27, .T. ) ;
#278 = ORIENTED_EDGE ( 'NONE', *, *, #55, .T. ) ;
#279 = EDGE_LOOP ( 'NONE', ( #271, #176, #236, #231 ) ) ;
#280 = EDGE_LOOP ( 'NONE', ( #277, #285, #288, #186 ) ) ;
#281 = ORIENTED_EDGE ( 'NONE', *, *, #51, .F. ) ;
#282 = ORIENTED_EDGE ( 'NONE', *, *, #26, .T. ) ;
#283 = EDGE_LOOP ( 'NONE', ( #191, #234, #183, #177 ) ) ;
#284 = EDGE_LOOP ( 'NONE', ( #219, #179, #189, #281 ) ) ;
#285 = ORIENTED_EDGE ( 'NONE', *, *, #29, .T. ) ;
#286 = ORIENTED_EDGE ( 'NONE', *, *, #21, .F. ) ;
#287 = EDGE_LOOP ( 'NONE', ( #278, #181, #240, #286 ) ) ;
#288 = ORIENTED_EDGE ( 'NONE', *, *, #55, .F. ) ;
#289 = EDGE_LOOP ( 'NONE', ( #178, #187, #282, #223 ) ) ;
#290 = FACE_OUTER_BOUND ( 'NONE', #279, .T. ) ;
#291 = LOCAL_TIME ( 8, 43, 46.00000000000000000, #295 ) ;
#292 = CALENDAR_DATE ( 2013, 12, 11 ) ;
#293 = FACE_OUTER_BOUND ( 'NONE', #280, .T. ) ;
#294 = CLOSED_SHELL ( 'NONE', ( #64, #69, #66, #71, #67, #65, #72, #70 ) ) ;
#295 = COORDINATED_UNIVERSAL_TIME_OFFSET ( 5, 0, .BEHIND. ) ;
#296 = APPROVAL_PERSON_ORGANIZATION ( #239, #6, #94 ) ;
ENDSEC;
END-ISO-10303-21;
