ISO-10303-21;
HEADER;
FILE_DESCRIPTION (( 'STEP AP203' ),
    '1' );
FILE_NAME ('A1429-5-C.STEP',
    '2013-11-12T13:43:21',
    ( '' ),
    ( '' ),
    'SwSTEP 2.0',
    'SolidWorks 2012',
    '' );
FILE_SCHEMA (( 'CONFIG_CONTROL_DESIGN' ));
ENDSEC;

DATA;
#1 = PRODUCT_RELATED_PRODUCT_CATEGORY ( 'detail', '', ( #56 ) ) ;
#2 = CC_DESIGN_SECURITY_CLASSIFICATION ( #7, ( #12 ) ) ;
#3 = CC_DESIGN_APPROVAL ( #4, ( #7 ) ) ;
#4 = APPROVAL ( #117, 'UNSPECIFIED' ) ;
#5 = CC_DESIGN_DATE_AND_TIME_ASSIGNMENT ( #285, #116, ( #7 ) ) ;
#6 = CC_DESIGN_PERSON_AND_ORGANIZATION_ASSIGNMENT ( #281, #118, ( #7 ) ) ;
#7 = SECURITY_CLASSIFICATION ( '', '', #105 ) ;
#8 = CC_DESIGN_PERSON_AND_ORGANIZATION_ASSIGNMENT ( #280, #115, ( #12 ) ) ;
#9 = CC_DESIGN_PERSON_AND_ORGANIZATION_ASSIGNMENT ( #279, #70, ( #12 ) ) ;
#10 = CC_DESIGN_APPROVAL ( #11, ( #12 ) ) ;
#11 = APPROVAL ( #113, 'UNSPECIFIED' ) ;
#12 = PRODUCT_DEFINITION_FORMATION_WITH_SPECIFIED_SOURCE ( 'ANY', '', #56, .NOT_KNOWN. ) ;
#13 = CC_DESIGN_DATE_AND_TIME_ASSIGNMENT ( #271, #165, ( #17 ) ) ;
#14 = CC_DESIGN_PERSON_AND_ORGANIZATION_ASSIGNMENT ( #267, #99, ( #17 ) ) ;
#15 = CC_DESIGN_APPROVAL ( #16, ( #17 ) ) ;
#16 = APPROVAL ( #101, 'UNSPECIFIED' ) ;
#17 = PRODUCT_DEFINITION ( 'UNKNOWN', '', #12, #58 ) ;
#18 = CC_DESIGN_PERSON_AND_ORGANIZATION_ASSIGNMENT ( #259, #73, ( #56 ) ) ;
#19 = AXIS2_PLACEMENT_3D ( 'NONE', #83, #72, #71 ) ;
#20 = AXIS2_PLACEMENT_3D ( 'NONE', #89, #92, #95 ) ;
#21 =( GEOMETRIC_REPRESENTATION_CONTEXT ( 3 ) GLOBAL_UNCERTAINTY_ASSIGNED_CONTEXT ( ( #54 ) ) GLOBAL_UNIT_ASSIGNED_CONTEXT ( ( #81, #82, #78 ) ) REPRESENTATION_CONTEXT ( 'NONE', 'WORKASPACE' ) );
#22 = AXIS2_PLACEMENT_3D ( 'NONE', #96, #94, #97 ) ;
#23 = AXIS2_PLACEMENT_3D ( 'NONE', #158, #160, #157 ) ;
#24 = AXIS2_PLACEMENT_3D ( 'NONE', #164, #162, #159 ) ;
#25 = AXIS2_PLACEMENT_3D ( 'NONE', #154, #151, #143 ) ;
#26 = AXIS2_PLACEMENT_3D ( 'NONE', #145, #137, #141 ) ;
#27 = AXIS2_PLACEMENT_3D ( 'NONE', #98, #163, #161 ) ;
#28 = AXIS2_PLACEMENT_3D ( 'NONE', #155, #153, #150 ) ;
#29 = AXIS2_PLACEMENT_3D ( 'NONE', #149, #148, #147 ) ;
#30 = AXIS2_PLACEMENT_3D ( 'NONE', #142, #144, #146 ) ;
#31 = AXIS2_PLACEMENT_3D ( 'NONE', #138, #140, #139 ) ;
#32 = AXIS2_PLACEMENT_3D ( 'NONE', #132, #131, #130 ) ;
#33 = AXIS2_PLACEMENT_3D ( 'NONE', #124, #123, #127 ) ;
#34 = AXIS2_PLACEMENT_3D ( 'NONE', #75, #152, #107 ) ;
#35 = AXIS2_PLACEMENT_3D ( 'NONE', #109, #108, #110 ) ;
#36 = AXIS2_PLACEMENT_3D ( 'NONE', #156, #77, #104 ) ;
#37 = EDGE_CURVE ( 'NONE', #168, #210, #218, .T. ) ;
#38 = EDGE_CURVE ( 'NONE', #204, #167, #209, .T. ) ;
#39 = EDGE_CURVE ( 'NONE', #171, #206, #217, .T. ) ;
#40 = EDGE_CURVE ( 'NONE', #210, #206, #219, .T. ) ;
#41 = EDGE_CURVE ( 'NONE', #168, #171, #220, .T. ) ;
#42 = EDGE_CURVE ( 'NONE', #167, #207, #223, .T. ) ;
#43 = EDGE_CURVE ( 'NONE', #211, #207, #225, .T. ) ;
#44 = EDGE_CURVE ( 'NONE', #204, #211, #221, .T. ) ;
#45 = EDGE_CURVE ( 'NONE', #167, #204, #227, .T. ) ;
#46 = EDGE_CURVE ( 'NONE', #167, #168, #230, .T. ) ;
#47 = EDGE_CURVE ( 'NONE', #204, #210, #231, .T. ) ;
#48 = EDGE_CURVE ( 'NONE', #207, #171, #228, .T. ) ;
#49 = EDGE_CURVE ( 'NONE', #206, #171, #235, .T. ) ;
#50 = EDGE_CURVE ( 'NONE', #211, #206, #237, .T. ) ;
#51 = EDGE_CURVE ( 'NONE', #207, #211, #233, .T. ) ;
#52 = EDGE_CURVE ( 'NONE', #210, #168, #240, .T. ) ;
#53 = ADVANCED_BREP_SHAPE_REPRESENTATION ( 'A1429-5-C', ( #55, #19 ), #21 ) ;
#54 = UNCERTAINTY_MEASURE_WITH_UNIT (LENGTH_MEASURE( 1.000000000000000100E-005 ), #81, 'distance_accuracy_value', 'NONE');
#55 = MANIFOLD_SOLID_BREP ( 'Cut-Revolve1', #173 ) ;
#56 = PRODUCT ( 'A1429-5-C', 'A1429-5-C', '', ( #112 ) ) ;
#57 = PERSON ( 'UNSPECIFIED', 'UNSPECIFIED', 'UNSPECIFIED', ('UNSPECIFIED'), ('UNSPECIFIED'), ('UNSPECIFIED') ) ;
#58 = DESIGN_CONTEXT ( 'detailed design', #103, 'design' ) ;
#59 = PRODUCT_DEFINITION_SHAPE ( 'NONE', 'NONE',  #17 ) ;
#60 = ADVANCED_FACE ( 'NONE', ( #238 ), #245, .T. ) ;
#61 = ADVANCED_FACE ( 'NONE', ( #241 ), #247, .T. ) ;
#62 = ADVANCED_FACE ( 'NONE', ( #242 ), #250, .T. ) ;
#63 = ADVANCED_FACE ( 'NONE', ( #243 ), #246, .F. ) ;
#64 = ADVANCED_FACE ( 'NONE', ( #244 ), #253, .T. ) ;
#65 = ADVANCED_FACE ( 'NONE', ( #248 ), #255, .F. ) ;
#66 = ADVANCED_FACE ( 'NONE', ( #249 ), #257, .F. ) ;
#67 = ADVANCED_FACE ( 'NONE', ( #252 ), #254, .F. ) ;
#68 = DIMENSIONAL_EXPONENTS ( 1.000000000000000000, 0.0000000000000000000, 0.0000000000000000000, 0.0000000000000000000, 0.0000000000000000000, 0.0000000000000000000, 0.0000000000000000000 ) ;
#69 = CARTESIAN_POINT ( 'NONE',  ( -0.1200000000000000000, 0.0000000000000000000, 1.365923996832131600E-016 ) ) ;
#70 = PERSON_AND_ORGANIZATION_ROLE ( 'creator' ) ;
#71 = DIRECTION ( 'NONE',  ( 1.000000000000000000, 0.0000000000000000000, 0.0000000000000000000 ) ) ;
#72 = DIRECTION ( 'NONE',  ( 0.0000000000000000000, 0.0000000000000000000, 1.000000000000000000 ) ) ;
#73 = PERSON_AND_ORGANIZATION_ROLE ( 'design_owner' ) ;
#74 = CARTESIAN_POINT ( 'NONE',  ( 0.1200000000000000000, 1.469576158976823700E-017, 1.365923996832131600E-016 ) ) ;
#75 = CARTESIAN_POINT ( 'NONE',  ( 0.0000000000000000000, 0.0000000000000000000, 1.365923996832131600E-016 ) ) ;
#76 = APPROVAL_ROLE ( '' ) ;
#77 = DIRECTION ( 'NONE',  ( -0.0000000000000000000, -0.0000000000000000000, -1.000000000000000000 ) ) ;
#78 =( NAMED_UNIT ( * ) SI_UNIT ( $, .STERADIAN. ) SOLID_ANGLE_UNIT ( ) );
#79 = APPLICATION_PROTOCOL_DEFINITION ( 'international standard', 'config_control_design', 1994, #111 ) ;
#80 =( LENGTH_UNIT ( ) NAMED_UNIT ( * ) SI_UNIT ( $, .METRE. ) );
#81 =( CONVERSION_BASED_UNIT ( 'INCH', #258 ) LENGTH_UNIT ( ) NAMED_UNIT ( #68 ) );
#82 =( NAMED_UNIT ( * ) PLANE_ANGLE_UNIT ( ) SI_UNIT ( $, .RADIAN. ) );
#83 = CARTESIAN_POINT ( 'NONE',  ( 0.0000000000000000000, 0.0000000000000000000, 0.0000000000000000000 ) ) ;
#84 = CARTESIAN_POINT ( 'NONE',  ( -0.07199999999999999500, 0.0000000000000000000, 0.02999999999999999900 ) ) ;
#85 = CARTESIAN_POINT ( 'NONE',  ( 0.1200000000000000000, 1.469576158976823700E-017, 0.2209999999999999700 ) ) ;
#86 = CARTESIAN_POINT ( 'NONE',  ( 0.07199999999999999500, 8.817456953860940500E-018, 0.02999999999999999900 ) ) ;
#87 = CARTESIAN_POINT ( 'NONE',  ( -0.1200000000000000000, 0.0000000000000000000, 1.365923996832131600E-016 ) ) ;
#88 = CARTESIAN_POINT ( 'NONE',  ( -0.1200000000000000000, 0.0000000000000000000, 0.2209999999999999700 ) ) ;
#89 = CARTESIAN_POINT ( 'NONE',  ( 0.0000000000000000000, 0.0000000000000000000, 0.2600000000000000100 ) ) ;
#90 = CARTESIAN_POINT ( 'NONE',  ( -0.07199999999999999500, 0.0000000000000000000, 0.2600000000000000100 ) ) ;
#91 = CARTESIAN_POINT ( 'NONE',  ( 0.07199999999999999500, 8.817456953860940500E-018, 0.2600000000000000100 ) ) ;
#92 = DIRECTION ( 'NONE',  ( -0.0000000000000000000, -0.0000000000000000000, -1.000000000000000000 ) ) ;
#93 = CARTESIAN_POINT ( 'NONE',  ( 0.1200000000000000000, 1.469576158976823700E-017, 1.365923996832131600E-016 ) ) ;
#94 = DIRECTION ( 'NONE',  ( -0.0000000000000000000, -0.0000000000000000000, -1.000000000000000000 ) ) ;
#95 = DIRECTION ( 'NONE',  ( -1.000000000000000000, 0.0000000000000000000, 0.0000000000000000000 ) ) ;
#96 = CARTESIAN_POINT ( 'NONE',  ( 0.0000000000000000000, 0.0000000000000000000, 1.365923996832131600E-016 ) ) ;
#97 = DIRECTION ( 'NONE',  ( -1.000000000000000000, 0.0000000000000000000, 0.0000000000000000000 ) ) ;
#98 = CARTESIAN_POINT ( 'NONE',  ( 0.0000000000000000000, 0.0000000000000000000, 1.365923996832131600E-016 ) ) ;
#99 = PERSON_AND_ORGANIZATION_ROLE ( 'creator' ) ;
#100 = APPROVAL_ROLE ( '' ) ;
#101 = APPROVAL_STATUS ( 'not_yet_approved' ) ;
#102 = APPLICATION_PROTOCOL_DEFINITION ( 'international standard', 'config_control_design', 1994, #103 ) ;
#103 = APPLICATION_CONTEXT ( 'configuration controlled 3d designs of mechanical parts and assemblies' ) ;
#104 = DIRECTION ( 'NONE',  ( -1.000000000000000000, 0.0000000000000000000, 0.0000000000000000000 ) ) ;
#105 = SECURITY_CLASSIFICATION_LEVEL ( 'unclassified' ) ;
#106 = APPROVAL_ROLE ( '' ) ;
#107 = DIRECTION ( 'NONE',  ( -1.000000000000000000, 0.0000000000000000000, 0.0000000000000000000 ) ) ;
#108 = DIRECTION ( 'NONE',  ( -0.0000000000000000000, -0.0000000000000000000, -1.000000000000000000 ) ) ;
#109 = CARTESIAN_POINT ( 'NONE',  ( 0.0000000000000000000, 0.0000000000000000000, 0.2600000000000000100 ) ) ;
#110 = DIRECTION ( 'NONE',  ( -1.000000000000000000, 0.0000000000000000000, 0.0000000000000000000 ) ) ;
#111 = APPLICATION_CONTEXT ( 'configuration controlled 3d designs of mechanical parts and assemblies' ) ;
#112 = MECHANICAL_CONTEXT ( 'NONE', #111, 'mechanical' ) ;
#113 = APPROVAL_STATUS ( 'not_yet_approved' ) ;
#114 = DIRECTION ( 'NONE',  ( -0.7761140001162654100, 0.0000000000000000000, -0.6305926250944656800 ) ) ;
#115 = PERSON_AND_ORGANIZATION_ROLE ( 'design_supplier' ) ;
#116 = DATE_TIME_ROLE ( 'classification_date' ) ;
#117 = APPROVAL_STATUS ( 'not_yet_approved' ) ;
#118 = PERSON_AND_ORGANIZATION_ROLE ( 'classification_officer' ) ;
#119 = DIRECTION ( 'NONE',  ( 0.8479983040050890200, 1.038498408682216400E-016, -0.5299989400031780400 ) ) ;
#120 = DIRECTION ( 'NONE',  ( 0.7761140001162654100, 9.504655260158328600E-017, -0.6305926250944656800 ) ) ;
#121 = CARTESIAN_POINT ( 'NONE',  ( 0.07199999999999999500, 8.817456953860942100E-018, 0.2600000000000000100 ) ) ;
#122 = DIRECTION ( 'NONE',  ( -0.0000000000000000000, -0.0000000000000000000, -1.000000000000000000 ) ) ;
#123 = DIRECTION ( 'NONE',  ( -0.0000000000000000000, -0.0000000000000000000, -1.000000000000000000 ) ) ;
#124 = CARTESIAN_POINT ( 'NONE',  ( 0.0000000000000000000, 0.0000000000000000000, 0.2209999999999999700 ) ) ;
#125 = CARTESIAN_POINT ( 'NONE',  ( -0.07199999999999999500, 0.0000000000000000000, 0.2600000000000000100 ) ) ;
#126 = CARTESIAN_POINT ( 'NONE',  ( 0.07199999999999999500, 8.817456953860940500E-018, 0.2600000000000000100 ) ) ;
#127 = DIRECTION ( 'NONE',  ( -1.000000000000000000, 0.0000000000000000000, 0.0000000000000000000 ) ) ;
#128 = CARTESIAN_POINT ( 'NONE',  ( 0.1200000000000000000, 1.469576158976823700E-017, 0.2600000000000000100 ) ) ;
#129 = DIRECTION ( 'NONE',  ( -0.0000000000000000000, -0.0000000000000000000, -1.000000000000000000 ) ) ;
#130 = DIRECTION ( 'NONE',  ( -1.000000000000000000, 0.0000000000000000000, 0.0000000000000000000 ) ) ;
#131 = DIRECTION ( 'NONE',  ( -0.0000000000000000000, -0.0000000000000000000, -1.000000000000000000 ) ) ;
#132 = CARTESIAN_POINT ( 'NONE',  ( 0.0000000000000000000, 0.0000000000000000000, 0.2600000000000000100 ) ) ;
#133 = CARTESIAN_POINT ( 'NONE',  ( -0.1200000000000000000, 0.0000000000000000000, 0.2600000000000000100 ) ) ;
#134 = CARTESIAN_POINT ( 'NONE',  ( -0.07199999999999999500, 0.0000000000000000000, 0.2600000000000000100 ) ) ;
#135 = DIRECTION ( 'NONE',  ( -0.0000000000000000000, -0.0000000000000000000, -1.000000000000000000 ) ) ;
#136 = DIRECTION ( 'NONE',  ( -0.0000000000000000000, -0.0000000000000000000, -1.000000000000000000 ) ) ;
#137 = DIRECTION ( 'NONE',  ( -0.0000000000000000000, -0.0000000000000000000, -1.000000000000000000 ) ) ;
#138 = CARTESIAN_POINT ( 'NONE',  ( 0.0000000000000000000, 0.0000000000000000000, 1.365923996832131600E-016 ) ) ;
#139 = DIRECTION ( 'NONE',  ( -1.000000000000000000, 0.0000000000000000000, 0.0000000000000000000 ) ) ;
#140 = DIRECTION ( 'NONE',  ( -0.0000000000000000000, -0.0000000000000000000, -1.000000000000000000 ) ) ;
#141 = DIRECTION ( 'NONE',  ( -1.000000000000000000, 0.0000000000000000000, 0.0000000000000000000 ) ) ;
#142 = CARTESIAN_POINT ( 'NONE',  ( 0.0000000000000000000, 0.0000000000000000000, 0.2209999999999999700 ) ) ;
#143 = DIRECTION ( 'NONE',  ( -1.000000000000000000, 0.0000000000000000000, 0.0000000000000000000 ) ) ;
#144 = DIRECTION ( 'NONE',  ( -0.0000000000000000000, -0.0000000000000000000, -1.000000000000000000 ) ) ;
#145 = CARTESIAN_POINT ( 'NONE',  ( 0.0000000000000000000, 0.0000000000000000000, 0.2600000000000000100 ) ) ;
#146 = DIRECTION ( 'NONE',  ( -1.000000000000000000, 0.0000000000000000000, 0.0000000000000000000 ) ) ;
#147 = DIRECTION ( 'NONE',  ( -1.000000000000000000, 0.0000000000000000000, 0.0000000000000000000 ) ) ;
#148 = DIRECTION ( 'NONE',  ( -0.0000000000000000000, -0.0000000000000000000, -1.000000000000000000 ) ) ;
#149 = CARTESIAN_POINT ( 'NONE',  ( 0.0000000000000000000, 0.0000000000000000000, 0.02999999999999999900 ) ) ;
#150 = DIRECTION ( 'NONE',  ( -1.000000000000000000, 0.0000000000000000000, 0.0000000000000000000 ) ) ;
#151 = DIRECTION ( 'NONE',  ( -0.0000000000000000000, -0.0000000000000000000, -1.000000000000000000 ) ) ;
#152 = DIRECTION ( 'NONE',  ( -0.0000000000000000000, -0.0000000000000000000, -1.000000000000000000 ) ) ;
#153 = DIRECTION ( 'NONE',  ( -0.0000000000000000000, -0.0000000000000000000, -1.000000000000000000 ) ) ;
#154 = CARTESIAN_POINT ( 'NONE',  ( 0.0000000000000000000, 0.0000000000000000000, 0.2600000000000000100 ) ) ;
#155 = CARTESIAN_POINT ( 'NONE',  ( 0.0000000000000000000, 0.0000000000000000000, 0.2600000000000000100 ) ) ;
#156 = CARTESIAN_POINT ( 'NONE',  ( 0.0000000000000000000, 0.0000000000000000000, 0.02999999999999999900 ) ) ;
#157 = DIRECTION ( 'NONE',  ( -1.000000000000000000, 0.0000000000000000000, 0.0000000000000000000 ) ) ;
#158 = CARTESIAN_POINT ( 'NONE',  ( 0.0000000000000000000, 0.0000000000000000000, 0.2600000000000000100 ) ) ;
#159 = DIRECTION ( 'NONE',  ( -1.000000000000000000, 0.0000000000000000000, 0.0000000000000000000 ) ) ;
#160 = DIRECTION ( 'NONE',  ( -0.0000000000000000000, -0.0000000000000000000, -1.000000000000000000 ) ) ;
#161 = DIRECTION ( 'NONE',  ( -1.000000000000000000, 0.0000000000000000000, 0.0000000000000000000 ) ) ;
#162 = DIRECTION ( 'NONE',  ( -0.0000000000000000000, -0.0000000000000000000, -1.000000000000000000 ) ) ;
#163 = DIRECTION ( 'NONE',  ( -0.0000000000000000000, -0.0000000000000000000, -1.000000000000000000 ) ) ;
#164 = CARTESIAN_POINT ( 'NONE',  ( 0.0000000000000000000, 0.0000000000000000000, 0.2600000000000000100 ) ) ;
#165 = DATE_TIME_ROLE ( 'creation_date' ) ;
#166 = DIRECTION ( 'NONE',  ( -0.8479983040050890200, 0.0000000000000000000, -0.5299989400031780400 ) ) ;
#167 = VERTEX_POINT ( 'NONE', #91 ) ;
#168 = VERTEX_POINT ( 'NONE', #86 ) ;
#169 = ORIENTED_EDGE ( 'NONE', *, *, #41, .T. ) ;
#170 = ORIENTED_EDGE ( 'NONE', *, *, #43, .F. ) ;
#171 = VERTEX_POINT ( 'NONE', #93 ) ;
#172 = ORIENTED_EDGE ( 'NONE', *, *, #47, .F. ) ;
#173 = CLOSED_SHELL ( 'NONE', ( #66, #62, #67, #60, #61, #63, #64, #65 ) ) ;
#174 = ORIENTED_EDGE ( 'NONE', *, *, #37, .F. ) ;
#175 = ORIENTED_EDGE ( 'NONE', *, *, #49, .T. ) ;
#176 = ORIENTED_EDGE ( 'NONE', *, *, #37, .T. ) ;
#177 = ORIENTED_EDGE ( 'NONE', *, *, #42, .T. ) ;
#178 = ORIENTED_EDGE ( 'NONE', *, *, #51, .T. ) ;
#179 = ORIENTED_EDGE ( 'NONE', *, *, #40, .T. ) ;
#180 = ORIENTED_EDGE ( 'NONE', *, *, #38, .T. ) ;
#181 = ORIENTED_EDGE ( 'NONE', *, *, #42, .F. ) ;
#182 = ORIENTED_EDGE ( 'NONE', *, *, #38, .F. ) ;
#183 = ORIENTED_EDGE ( 'NONE', *, *, #41, .F. ) ;
#184 = ORIENTED_EDGE ( 'NONE', *, *, #50, .T. ) ;
#185 = ORIENTED_EDGE ( 'NONE', *, *, #45, .T. ) ;
#186 = ORIENTED_EDGE ( 'NONE', *, *, #44, .T. ) ;
#187 = ORIENTED_EDGE ( 'NONE', *, *, #44, .F. ) ;
#188 = ORIENTED_EDGE ( 'NONE', *, *, #49, .F. ) ;
#189 = ORIENTED_EDGE ( 'NONE', *, *, #52, .T. ) ;
#190 = EDGE_LOOP ( 'NONE', ( #180, #177, #170, #187 ) ) ;
#191 = EDGE_LOOP ( 'NONE', ( #183, #193, #179, #175 ) ) ;
#192 = ORIENTED_EDGE ( 'NONE', *, *, #48, .T. ) ;
#193 = ORIENTED_EDGE ( 'NONE', *, *, #52, .F. ) ;
#194 = ORIENTED_EDGE ( 'NONE', *, *, #50, .F. ) ;
#195 = ORIENTED_EDGE ( 'NONE', *, *, #46, .T. ) ;
#196 = ORIENTED_EDGE ( 'NONE', *, *, #45, .F. ) ;
#197 = ORIENTED_EDGE ( 'NONE', *, *, #51, .F. ) ;
#198 = ORIENTED_EDGE ( 'NONE', *, *, #47, .T. ) ;
#199 = ORIENTED_EDGE ( 'NONE', *, *, #46, .F. ) ;
#200 = ORIENTED_EDGE ( 'NONE', *, *, #43, .T. ) ;
#201 = EDGE_LOOP ( 'NONE', ( #181, #185, #186, #197 ) ) ;
#202 = EDGE_LOOP ( 'NONE', ( #200, #192, #188, #194 ) ) ;
#203 = EDGE_LOOP ( 'NONE', ( #213, #178, #184, #212 ) ) ;
#204 = VERTEX_POINT ( 'NONE', #90 ) ;
#205 = ORIENTED_EDGE ( 'NONE', *, *, #39, .T. ) ;
#206 = VERTEX_POINT ( 'NONE', #87 ) ;
#207 = VERTEX_POINT ( 'NONE', #85 ) ;
#208 = ORIENTED_EDGE ( 'NONE', *, *, #40, .F. ) ;
#209 = CIRCLE ( 'NONE', #35, 0.07199999999999999500 ) ;
#210 = VERTEX_POINT ( 'NONE', #84 ) ;
#211 = VERTEX_POINT ( 'NONE', #88 ) ;
#212 = ORIENTED_EDGE ( 'NONE', *, *, #39, .F. ) ;
#213 = ORIENTED_EDGE ( 'NONE', *, *, #48, .F. ) ;
#214 = EDGE_LOOP ( 'NONE', ( #196, #195, #176, #172 ) ) ;
#215 = EDGE_LOOP ( 'NONE', ( #174, #169, #205, #208 ) ) ;
#216 = EDGE_LOOP ( 'NONE', ( #199, #182, #198, #189 ) ) ;
#217 = CIRCLE ( 'NONE', #34, 0.1200000000000000000 ) ;
#218 = CIRCLE ( 'NONE', #36, 0.07199999999999999500 ) ;
#219 = LINE ( 'NONE', #69, #222 ) ;
#220 = LINE ( 'NONE', #74, #224 ) ;
#221 = LINE ( 'NONE', #125, #229 ) ;
#222 = VECTOR ( 'NONE', #166, 39.37007874015748900 ) ;
#223 = LINE ( 'NONE', #121, #226 ) ;
#224 = VECTOR ( 'NONE', #119, 39.37007874015748900 ) ;
#225 = CIRCLE ( 'NONE', #33, 0.1200000000000000000 ) ;
#226 = VECTOR ( 'NONE', #120, 39.37007874015748900 ) ;
#227 = CIRCLE ( 'NONE', #32, 0.07199999999999999500 ) ;
#228 = LINE ( 'NONE', #128, #236 ) ;
#229 = VECTOR ( 'NONE', #114, 39.37007874015748900 ) ;
#230 = LINE ( 'NONE', #126, #232 ) ;
#231 = LINE ( 'NONE', #134, #234 ) ;
#232 = VECTOR ( 'NONE', #122, 39.37007874015748100 ) ;
#233 = CIRCLE ( 'NONE', #30, 0.1200000000000000000 ) ;
#234 = VECTOR ( 'NONE', #136, 39.37007874015748100 ) ;
#235 = CIRCLE ( 'NONE', #31, 0.1200000000000000000 ) ;
#236 = VECTOR ( 'NONE', #135, 39.37007874015748100 ) ;
#237 = LINE ( 'NONE', #133, #239 ) ;
#238 = FACE_OUTER_BOUND ( 'NONE', #202, .T. ) ;
#239 = VECTOR ( 'NONE', #129, 39.37007874015748100 ) ;
#240 = CIRCLE ( 'NONE', #29, 0.07199999999999999500 ) ;
#241 = FACE_OUTER_BOUND ( 'NONE', #203, .T. ) ;
#242 = FACE_OUTER_BOUND ( 'NONE', #190, .T. ) ;
#243 = FACE_OUTER_BOUND ( 'NONE', #216, .T. ) ;
#244 = FACE_OUTER_BOUND ( 'NONE', #201, .T. ) ;
#245 = CYLINDRICAL_SURFACE ( 'NONE', #26, 0.1200000000000000000 ) ;
#246 = CYLINDRICAL_SURFACE ( 'NONE', #23, 0.07199999999999999500 ) ;
#247 = CYLINDRICAL_SURFACE ( 'NONE', #25, 0.1200000000000000000 ) ;
#248 = FACE_OUTER_BOUND ( 'NONE', #191, .T. ) ;
#249 = FACE_OUTER_BOUND ( 'NONE', #215, .T. ) ;
#250 = CONICAL_SURFACE ( 'NONE', #28, 0.07199999999999999500, 0.8884797719201484900 ) ;
#251 = ORGANIZATION ( 'UNSPECIFIED', 'UNSPECIFIED', '' ) ;
#252 = FACE_OUTER_BOUND ( 'NONE', #214, .T. ) ;
#253 = CONICAL_SURFACE ( 'NONE', #24, 0.07199999999999999500, 0.8884797719201484900 ) ;
#254 = CYLINDRICAL_SURFACE ( 'NONE', #20, 0.07199999999999999500 ) ;
#255 = CONICAL_SURFACE ( 'NONE', #27, 0.1200000000000000000, 1.012197011451336300 ) ;
#256 = SHAPE_DEFINITION_REPRESENTATION ( #59, #53 ) ;
#257 = CONICAL_SURFACE ( 'NONE', #22, 0.1200000000000000000, 1.012197011451336300 ) ;
#258 = LENGTH_MEASURE_WITH_UNIT ( LENGTH_MEASURE( 0.02539999999999999900 ), #80 );
#259 = PERSON_AND_ORGANIZATION ( #57, #251 ) ;
#260 = PERSON_AND_ORGANIZATION ( #57, #251 ) ;
#261 = APPROVAL_PERSON_ORGANIZATION ( #260, #16, #100 ) ;
#262 = COORDINATED_UNIVERSAL_TIME_OFFSET ( 5, 0, .BEHIND. ) ;
#263 = LOCAL_TIME ( 8, 43, 21.00000000000000000, #262 ) ;
#264 = CALENDAR_DATE ( 2013, 12, 11 ) ;
#265 = DATE_AND_TIME ( #264, #263 ) ;
#266 = APPROVAL_DATE_TIME ( #265, #16 ) ;
#267 = PERSON_AND_ORGANIZATION ( #57, #251 ) ;
#268 = COORDINATED_UNIVERSAL_TIME_OFFSET ( 5, 0, .BEHIND. ) ;
#269 = LOCAL_TIME ( 8, 43, 21.00000000000000000, #268 ) ;
#270 = CALENDAR_DATE ( 2013, 12, 11 ) ;
#271 = DATE_AND_TIME ( #270, #269 ) ;
#272 = PERSON_AND_ORGANIZATION ( #57, #251 ) ;
#273 = APPROVAL_PERSON_ORGANIZATION ( #272, #11, #76 ) ;
#274 = COORDINATED_UNIVERSAL_TIME_OFFSET ( 5, 0, .BEHIND. ) ;
#275 = LOCAL_TIME ( 8, 43, 21.00000000000000000, #274 ) ;
#276 = CALENDAR_DATE ( 2013, 12, 11 ) ;
#277 = DATE_AND_TIME ( #276, #275 ) ;
#278 = APPROVAL_DATE_TIME ( #277, #11 ) ;
#279 = PERSON_AND_ORGANIZATION ( #57, #251 ) ;
#280 = PERSON_AND_ORGANIZATION ( #57, #251 ) ;
#281 = PERSON_AND_ORGANIZATION ( #57, #251 ) ;
#282 = COORDINATED_UNIVERSAL_TIME_OFFSET ( 5, 0, .BEHIND. ) ;
#283 = LOCAL_TIME ( 8, 43, 21.00000000000000000, #282 ) ;
#284 = CALENDAR_DATE ( 2013, 12, 11 ) ;
#285 = DATE_AND_TIME ( #284, #283 ) ;
#286 = PERSON_AND_ORGANIZATION ( #57, #251 ) ;
#287 = APPROVAL_PERSON_ORGANIZATION ( #286, #4, #106 ) ;
#288 = COORDINATED_UNIVERSAL_TIME_OFFSET ( 5, 0, .BEHIND. ) ;
#289 = LOCAL_TIME ( 8, 43, 21.00000000000000000, #288 ) ;
#290 = CALENDAR_DATE ( 2013, 12, 11 ) ;
#291 = DATE_AND_TIME ( #290, #289 ) ;
#292 = APPROVAL_DATE_TIME ( #291, #4 ) ;
ENDSEC;
END-ISO-10303-21;
