ISO-10303-21;
HEADER;
FILE_DESCRIPTION (( 'STEP AP203' ),
    '1' );
FILE_NAME ('A2236-2-WR.STEP',
    '2013-11-19T12:28:05',
    ( '' ),
    ( '' ),
    'SwSTEP 2.0',
    'SolidWorks 2012',
    '' );
FILE_SCHEMA (( 'CONFIG_CONTROL_DESIGN' ));
ENDSEC;

DATA;
#1 = EDGE_CURVE ( 'NONE', #322, #323, #298, .T. ) ;
#2 = CC_DESIGN_SECURITY_CLASSIFICATION ( #6, ( #26 ) ) ;
#3 = PRODUCT_RELATED_PRODUCT_CATEGORY ( 'detail', '', ( #80 ) ) ;
#4 = CC_DESIGN_APPROVAL ( #10, ( #6 ) ) ;
#5 = CC_DESIGN_APPROVAL ( #61, ( #15 ) ) ;
#6 = SECURITY_CLASSIFICATION ( '', '', #144 ) ;
#7 = EDGE_CURVE ( 'NONE', #315, #323, #300, .T. ) ;
#8 = CC_DESIGN_DATE_AND_TIME_ASSIGNMENT ( #82, #142, ( #6 ) ) ;
#9 = CC_DESIGN_PERSON_AND_ORGANIZATION_ASSIGNMENT ( #86, #145, ( #26 ) ) ;
#10 = APPROVAL ( #141, 'UNSPECIFIED' ) ;
#11 = CC_DESIGN_PERSON_AND_ORGANIZATION_ASSIGNMENT ( #83, #143, ( #6 ) ) ;
#12 = CC_DESIGN_PERSON_AND_ORGANIZATION_ASSIGNMENT ( #105, #151, ( #15 ) ) ;
#13 = AXIS2_PLACEMENT_3D ( 'NONE', #225, #221, #220 ) ;
#14 = AXIS2_PLACEMENT_3D ( 'NONE', #187, #189, #204 ) ;
#15 = PRODUCT_DEFINITION ( 'UNKNOWN', '', #26, #79 ) ;
#16 = AXIS2_PLACEMENT_3D ( 'NONE', #241, #240, #237 ) ;
#17 = EDGE_CURVE ( 'NONE', #314, #357, #299, .T. ) ;
#18 = AXIS2_PLACEMENT_3D ( 'NONE', #219, #255, #193 ) ;
#19 = CC_DESIGN_APPROVAL ( #35, ( #26 ) ) ;
#20 = EDGE_CURVE ( 'NONE', #357, #325, #297, .T. ) ;
#21 = EDGE_CURVE ( 'NONE', #317, #318, #294, .T. ) ;
#22 = EDGE_CURVE ( 'NONE', #320, #318, #295, .T. ) ;
#23 = EDGE_CURVE ( 'NONE', #324, #325, #292, .T. ) ;
#24 = AXIS2_PLACEMENT_3D ( 'NONE', #228, #227, #226 ) ;
#25 = EDGE_CURVE ( 'NONE', #319, #321, #290, .T. ) ;
#26 = PRODUCT_DEFINITION_FORMATION_WITH_SPECIFIED_SOURCE ( 'ANY', '', #80, .NOT_KNOWN. ) ;
#27 = AXIS2_PLACEMENT_3D ( 'NONE', #186, #138, #137 ) ;
#28 = ADVANCED_FACE ( 'NONE', ( #289 ), #283, .T. ) ;
#29 = ADVANCED_FACE ( 'NONE', ( #287, #282 ), #178, .T. ) ;
#30 = ADVANCED_FACE ( 'NONE', ( #286 ), #279, .F. ) ;
#31 = ADVANCED_FACE ( 'NONE', ( #281, #278 ), #150, .T. ) ;
#32 = ADVANCED_FACE ( 'NONE', ( #284 ), #275, .T. ) ;
#33 = ADVANCED_FACE ( 'NONE', ( #277 ), #274, .T. ) ;
#34 = ADVANCED_FACE ( 'NONE', ( #280 ), #276, .T. ) ;
#35 = APPROVAL ( #148, 'UNSPECIFIED' ) ;
#36 = ADVANCED_FACE ( 'NONE', ( #272 ), #258, .T. ) ;
#37 = AXIS2_PLACEMENT_3D ( 'NONE', #260, #262, #256 ) ;
#38 = AXIS2_PLACEMENT_3D ( 'NONE', #218, #217, #216 ) ;
#39 = EDGE_CURVE ( 'NONE', #314, #324, #270, .T. ) ;
#40 = ADVANCED_FACE ( 'NONE', ( #285 ), #269, .T. ) ;
#41 = AXIS2_PLACEMENT_3D ( 'NONE', #202, #265, #139 ) ;
#42 = EDGE_CURVE ( 'NONE', #325, #324, #268, .T. ) ;
#43 = EDGE_CURVE ( 'NONE', #321, #320, #267, .T. ) ;
#44 = AXIS2_PLACEMENT_3D ( 'NONE', #192, #191, #190 ) ;
#45 = AXIS2_PLACEMENT_3D ( 'NONE', #203, #201, #200 ) ;
#46 = EDGE_CURVE ( 'NONE', #323, #322, #132, .T. ) ;
#47 = EDGE_CURVE ( 'NONE', #357, #314, #126, .T. ) ;
#48 = EDGE_CURVE ( 'NONE', #315, #316, #130, .T. ) ;
#49 = AXIS2_PLACEMENT_3D ( 'NONE', #198, #194, #199 ) ;
#50 = EDGE_CURVE ( 'NONE', #321, #317, #125, .T. ) ;
#51 = AXIS2_PLACEMENT_3D ( 'NONE', #207, #206, #205 ) ;
#52 = AXIS2_PLACEMENT_3D ( 'NONE', #243, #253, #235 ) ;
#53 = CC_DESIGN_PERSON_AND_ORGANIZATION_ASSIGNMENT ( #88, #146, ( #26 ) ) ;
#54 = AXIS2_PLACEMENT_3D ( 'NONE', #224, #173, #168 ) ;
#55 = EDGE_CURVE ( 'NONE', #317, #321, #128, .T. ) ;
#56 = EDGE_CURVE ( 'NONE', #318, #320, #123, .T. ) ;
#57 = AXIS2_PLACEMENT_3D ( 'NONE', #251, #252, #229 ) ;
#58 = EDGE_CURVE ( 'NONE', #316, #322, #94, .T. ) ;
#59 = EDGE_CURVE ( 'NONE', #319, #317, #122, .T. ) ;
#60 = EDGE_CURVE ( 'NONE', #316, #315, #124, .T. ) ;
#61 = APPROVAL ( #154, 'UNSPECIFIED' ) ;
#62 = AXIS2_PLACEMENT_3D ( 'NONE', #215, #214, #213 ) ;
#63 = AXIS2_PLACEMENT_3D ( 'NONE', #169, #161, #159 ) ;
#64 = CC_DESIGN_PERSON_AND_ORGANIZATION_ASSIGNMENT ( #113, #157, ( #80 ) ) ;
#65 = CC_DESIGN_DATE_AND_TIME_ASSIGNMENT ( #101, #149, ( #15 ) ) ;
#66 = AXIS2_PLACEMENT_3D ( 'NONE', #197, #196, #195 ) ;
#67 = AXIS2_PLACEMENT_3D ( 'NONE', #223, #222, #263 ) ;
#68 =( GEOMETRIC_REPRESENTATION_CONTEXT ( 3 ) GLOBAL_UNCERTAINTY_ASSIGNED_CONTEXT ( ( #133 ) ) GLOBAL_UNIT_ASSIGNED_CONTEXT ( ( #167, #166, #165 ) ) REPRESENTATION_CONTEXT ( 'NONE', 'WORKASPACE' ) );
#69 = AXIS2_PLACEMENT_3D ( 'NONE', #244, #239, #254 ) ;
#70 = AXIS2_PLACEMENT_3D ( 'NONE', #259, #250, #249 ) ;
#71 = AXIS2_PLACEMENT_3D ( 'NONE', #212, #211, #210 ) ;
#72 = AXIS2_PLACEMENT_3D ( 'NONE', #261, #264, #152 ) ;
#73 = AXIS2_PLACEMENT_3D ( 'NONE', #232, #231, #230 ) ;
#74 = AXIS2_PLACEMENT_3D ( 'NONE', #160, #163, #176 ) ;
#75 = DIMENSIONAL_EXPONENTS ( 1.000000000000000000, 0.0000000000000000000, 0.0000000000000000000, 0.0000000000000000000, 0.0000000000000000000, 0.0000000000000000000, 0.0000000000000000000 ) ;
#76 = ADVANCED_FACE ( 'NONE', ( #120 ), #118, .T. ) ;
#77 = ADVANCED_FACE ( 'NONE', ( #119 ), #117, .F. ) ;
#78 = PRODUCT_DEFINITION_SHAPE ( 'NONE', 'NONE',  #15 ) ;
#79 = DESIGN_CONTEXT ( 'detailed design', #156, 'design' ) ;
#80 = PRODUCT ( 'A2236-2-WR', 'A2236-2-WR', '', ( #158 ) ) ;
#81 = PERSON ( 'UNSPECIFIED', 'UNSPECIFIED', 'UNSPECIFIED', ('UNSPECIFIED'), ('UNSPECIFIED'), ('UNSPECIFIED') ) ;
#82 = DATE_AND_TIME ( #85, #84 ) ;
#83 = PERSON_AND_ORGANIZATION ( #81, #114 ) ;
#84 = LOCAL_TIME ( 7, 28, 5.000000000000000000, #90 ) ;
#85 = CALENDAR_DATE ( 2013, 19, 11 ) ;
#86 = PERSON_AND_ORGANIZATION ( #81, #114 ) ;
#87 = APPROVAL_PERSON_ORGANIZATION ( #92, #10, #140 ) ;
#88 = PERSON_AND_ORGANIZATION ( #81, #114 ) ;
#89 = APPROVAL_DATE_TIME ( #95, #35 ) ;
#90 = COORDINATED_UNIVERSAL_TIME_OFFSET ( 5, 0, .BEHIND. ) ;
#91 = COORDINATED_UNIVERSAL_TIME_OFFSET ( 5, 0, .BEHIND. ) ;
#92 = PERSON_AND_ORGANIZATION ( #81, #114 ) ;
#93 = LOCAL_TIME ( 7, 28, 5.000000000000000000, #91 ) ;
#94 = LINE ( 'NONE', #209, #121 ) ;
#95 = DATE_AND_TIME ( #96, #97 ) ;
#96 = CALENDAR_DATE ( 2013, 19, 11 ) ;
#97 = LOCAL_TIME ( 7, 28, 5.000000000000000000, #98 ) ;
#98 = COORDINATED_UNIVERSAL_TIME_OFFSET ( 5, 0, .BEHIND. ) ;
#99 = APPROVAL_PERSON_ORGANIZATION ( #100, #35, #147 ) ;
#100 = PERSON_AND_ORGANIZATION ( #81, #114 ) ;
#101 = DATE_AND_TIME ( #102, #103 ) ;
#102 = CALENDAR_DATE ( 2013, 19, 11 ) ;
#103 = LOCAL_TIME ( 7, 28, 5.000000000000000000, #104 ) ;
#104 = COORDINATED_UNIVERSAL_TIME_OFFSET ( 5, 0, .BEHIND. ) ;
#105 = PERSON_AND_ORGANIZATION ( #81, #114 ) ;
#106 = APPROVAL_DATE_TIME ( #107, #61 ) ;
#107 = DATE_AND_TIME ( #108, #109 ) ;
#108 = CALENDAR_DATE ( 2013, 19, 11 ) ;
#109 = LOCAL_TIME ( 7, 28, 5.000000000000000000, #110 ) ;
#110 = COORDINATED_UNIVERSAL_TIME_OFFSET ( 5, 0, .BEHIND. ) ;
#111 = APPROVAL_PERSON_ORGANIZATION ( #112, #61, #153 ) ;
#112 = PERSON_AND_ORGANIZATION ( #81, #114 ) ;
#113 = PERSON_AND_ORGANIZATION ( #81, #114 ) ;
#114 = ORGANIZATION ( 'UNSPECIFIED', 'UNSPECIFIED', '' ) ;
#115 = SHAPE_DEFINITION_REPRESENTATION ( #78, #134 ) ;
#116 = LENGTH_MEASURE_WITH_UNIT ( LENGTH_MEASURE( 0.02539999999999999900 ), #170 );
#117 = CYLINDRICAL_SURFACE ( 'NONE', #14, 0.005345904096558285100 ) ;
#118 = CYLINDRICAL_SURFACE ( 'NONE', #49, 0.01000000000000000000 ) ;
#119 = FACE_OUTER_BOUND ( 'NONE', #301, .T. ) ;
#120 = FACE_OUTER_BOUND ( 'NONE', #304, .T. ) ;
#121 = VECTOR ( 'NONE', #208, 39.37007874015748100 ) ;
#122 = CIRCLE ( 'NONE', #66, 0.03289599500414629200 ) ;
#123 = CIRCLE ( 'NONE', #45, 0.005000000000000000100 ) ;
#124 = CIRCLE ( 'NONE', #44, 0.005345904096558279900 ) ;
#125 = CIRCLE ( 'NONE', #71, 0.005000000000000000100 ) ;
#126 = CIRCLE ( 'NONE', #38, 0.01000000000000000000 ) ;
#127 = DATE_AND_TIME ( #129, #93 ) ;
#128 = CIRCLE ( 'NONE', #51, 0.005000000000000000100 ) ;
#129 = CALENDAR_DATE ( 2013, 19, 11 ) ;
#130 = CIRCLE ( 'NONE', #62, 0.005345904096558279900 ) ;
#131 = APPROVAL_DATE_TIME ( #127, #10 ) ;
#132 = CIRCLE ( 'NONE', #13, 0.005345904096558290300 ) ;
#133 = UNCERTAINTY_MEASURE_WITH_UNIT (LENGTH_MEASURE( 1.000000000000000100E-005 ), #167, 'distance_accuracy_value', 'NONE');
#134 = ADVANCED_BREP_SHAPE_REPRESENTATION ( 'A2236-2-WR', ( #136, #135, #63 ), #68 ) ;
#135 = MANIFOLD_SOLID_BREP ( 'Revolve2', #366 ) ;
#136 = MANIFOLD_SOLID_BREP ( 'Revolve1', #271 ) ;
#137 = DIRECTION ( 'NONE',  ( 1.000000000000000000, 0.0000000000000000000, -0.0000000000000000000 ) ) ;
#138 = DIRECTION ( 'NONE',  ( 0.0000000000000000000, 0.0000000000000000000, 1.000000000000000000 ) ) ;
#139 = DIRECTION ( 'NONE',  ( -1.000000000000000000, 0.0000000000000000000, 0.0000000000000000000 ) ) ;
#140 = APPROVAL_ROLE ( '' ) ;
#141 = APPROVAL_STATUS ( 'not_yet_approved' ) ;
#142 = DATE_TIME_ROLE ( 'classification_date' ) ;
#143 = PERSON_AND_ORGANIZATION_ROLE ( 'classification_officer' ) ;
#144 = SECURITY_CLASSIFICATION_LEVEL ( 'unclassified' ) ;
#145 = PERSON_AND_ORGANIZATION_ROLE ( 'design_supplier' ) ;
#146 = PERSON_AND_ORGANIZATION_ROLE ( 'creator' ) ;
#147 = APPROVAL_ROLE ( '' ) ;
#148 = APPROVAL_STATUS ( 'not_yet_approved' ) ;
#149 = DATE_TIME_ROLE ( 'creation_date' ) ;
#150 = PLANE ( 'NONE',  #27 ) ;
#151 = PERSON_AND_ORGANIZATION_ROLE ( 'creator' ) ;
#152 = DIRECTION ( 'NONE',  ( -1.000000000000000000, 0.0000000000000000000, 0.0000000000000000000 ) ) ;
#153 = APPROVAL_ROLE ( '' ) ;
#154 = APPROVAL_STATUS ( 'not_yet_approved' ) ;
#155 = APPLICATION_PROTOCOL_DEFINITION ( 'international standard', 'config_control_design', 1994, #156 ) ;
#156 = APPLICATION_CONTEXT ( 'configuration controlled 3d designs of mechanical parts and assemblies' ) ;
#157 = PERSON_AND_ORGANIZATION_ROLE ( 'design_owner' ) ;
#158 = MECHANICAL_CONTEXT ( 'NONE', #162, 'mechanical' ) ;
#159 = DIRECTION ( 'NONE',  ( 1.000000000000000000, 0.0000000000000000000, 0.0000000000000000000 ) ) ;
#160 = CARTESIAN_POINT ( 'NONE',  ( 0.0000000000000000000, 0.0000000000000000000, 0.0000000000000000000 ) ) ;
#161 = DIRECTION ( 'NONE',  ( 0.0000000000000000000, 0.0000000000000000000, 1.000000000000000000 ) ) ;
#162 = APPLICATION_CONTEXT ( 'configuration controlled 3d designs of mechanical parts and assemblies' ) ;
#163 = DIRECTION ( 'NONE',  ( -0.0000000000000000000, -0.0000000000000000000, -1.000000000000000000 ) ) ;
#164 = APPLICATION_PROTOCOL_DEFINITION ( 'international standard', 'config_control_design', 1994, #162 ) ;
#165 =( NAMED_UNIT ( * ) SI_UNIT ( $, .STERADIAN. ) SOLID_ANGLE_UNIT ( ) );
#166 =( NAMED_UNIT ( * ) PLANE_ANGLE_UNIT ( ) SI_UNIT ( $, .RADIAN. ) );
#167 =( CONVERSION_BASED_UNIT ( 'INCH', #116 ) LENGTH_UNIT ( ) NAMED_UNIT ( #75 ) );
#168 = DIRECTION ( 'NONE',  ( -1.000000000000000000, 0.0000000000000000000, 0.0000000000000000000 ) ) ;
#169 = CARTESIAN_POINT ( 'NONE',  ( 0.0000000000000000000, 0.0000000000000000000, 0.0000000000000000000 ) ) ;
#170 =( LENGTH_UNIT ( ) NAMED_UNIT ( * ) SI_UNIT ( $, .METRE. ) );
#171 = CARTESIAN_POINT ( 'NONE',  ( 0.01000000000000000000, 1.224646799147353400E-018, 0.09224620568251602800 ) ) ;
#172 = CARTESIAN_POINT ( 'NONE',  ( 0.01000000000000000000, 1.224646799147353400E-018, 0.0000000000000000000 ) ) ;
#173 = DIRECTION ( 'NONE',  ( -0.0000000000000000000, 0.0000000000000000000, -1.000000000000000000 ) ) ;
#174 = CARTESIAN_POINT ( 'NONE',  ( -0.01000000000000000000, 0.0000000000000000000, 0.0000000000000000000 ) ) ;
#175 = CARTESIAN_POINT ( 'NONE',  ( -0.005345904096558290300, 0.0000000000000000000, 0.0000000000000000000 ) ) ;
#176 = DIRECTION ( 'NONE',  ( -1.000000000000000000, 0.0000000000000000000, 0.0000000000000000000 ) ) ;
#177 = CARTESIAN_POINT ( 'NONE',  ( 0.005345904096558289400, 6.546844340398833700E-019, 0.0000000000000000000 ) ) ;
#178 = PLANE ( 'NONE',  #54 ) ;
#179 = CARTESIAN_POINT ( 'NONE',  ( 0.005000000000000000100, 6.123233995736766900E-019, 0.0000000000000000000 ) ) ;
#180 = CARTESIAN_POINT ( 'NONE',  ( -0.005000000000000000100, 0.0000000000000000000, 0.0000000000000000000 ) ) ;
#181 = CARTESIAN_POINT ( 'NONE',  ( 0.005345904096558279900, 6.546844340398825000E-019, 0.09224620568251602800 ) ) ;
#182 = CARTESIAN_POINT ( 'NONE',  ( 0.005000000000000000100, 6.123233995736766900E-019, 0.1387676933219367000 ) ) ;
#183 = CARTESIAN_POINT ( 'NONE',  ( 0.0000000000000000000, 0.0000000000000000000, 0.1404907113826559800 ) ) ;
#184 = CARTESIAN_POINT ( 'NONE',  ( -0.005000000000000000100, 0.0000000000000000000, 0.1387676933219367000 ) ) ;
#185 = CARTESIAN_POINT ( 'NONE',  ( -0.005345904096558279900, 0.0000000000000000000, 0.09224620568251602800 ) ) ;
#186 = CARTESIAN_POINT ( 'NONE',  ( 0.0000000000000000000, 0.005345904096558279900, 0.09224620568251602800 ) ) ;
#187 = CARTESIAN_POINT ( 'NONE',  ( 0.0000000000000000000, 0.0000000000000000000, 0.0000000000000000000 ) ) ;
#188 = CARTESIAN_POINT ( 'NONE',  ( -0.01000000000000000000, 0.0000000000000000000, 0.09224620568251602800 ) ) ;
#189 = DIRECTION ( 'NONE',  ( -0.0000000000000000000, -0.0000000000000000000, -1.000000000000000000 ) ) ;
#190 = DIRECTION ( 'NONE',  ( -1.000000000000000000, 0.0000000000000000000, 0.0000000000000000000 ) ) ;
#191 = DIRECTION ( 'NONE',  ( -0.0000000000000000000, -0.0000000000000000000, -1.000000000000000000 ) ) ;
#192 = CARTESIAN_POINT ( 'NONE',  ( 0.0000000000000000000, 0.0000000000000000000, 0.09224620568251602800 ) ) ;
#193 = DIRECTION ( 'NONE',  ( -1.000000000000000000, -1.224646799147353200E-016, 0.0000000000000000000 ) ) ;
#194 = DIRECTION ( 'NONE',  ( -0.0000000000000000000, -0.0000000000000000000, -1.000000000000000000 ) ) ;
#195 = DIRECTION ( 'NONE',  ( 0.0000000000000000000, 0.0000000000000000000, -1.000000000000000000 ) ) ;
#196 = DIRECTION ( 'NONE',  ( 0.0000000000000000000, -1.000000000000000000, 0.0000000000000000000 ) ) ;
#197 = CARTESIAN_POINT ( 'NONE',  ( 0.008182880665241365500, 0.0000000000000000000, 0.1086287128368767600 ) ) ;
#198 = CARTESIAN_POINT ( 'NONE',  ( 0.0000000000000000000, 0.0000000000000000000, 0.0000000000000000000 ) ) ;
#199 = DIRECTION ( 'NONE',  ( -1.000000000000000000, 0.0000000000000000000, 0.0000000000000000000 ) ) ;
#200 = DIRECTION ( 'NONE',  ( -1.000000000000000000, 0.0000000000000000000, 0.0000000000000000000 ) ) ;
#201 = DIRECTION ( 'NONE',  ( -0.0000000000000000000, -0.0000000000000000000, -1.000000000000000000 ) ) ;
#202 = CARTESIAN_POINT ( 'NONE',  ( 0.0000000000000000000, 0.0000000000000000000, 0.0000000000000000000 ) ) ;
#203 = CARTESIAN_POINT ( 'NONE',  ( 0.0000000000000000000, 0.0000000000000000000, 0.0000000000000000000 ) ) ;
#204 = DIRECTION ( 'NONE',  ( -1.000000000000000000, 0.0000000000000000000, 0.0000000000000000000 ) ) ;
#205 = DIRECTION ( 'NONE',  ( -1.000000000000000000, 0.0000000000000000000, 0.0000000000000000000 ) ) ;
#206 = DIRECTION ( 'NONE',  ( -0.0000000000000000000, -0.0000000000000000000, -1.000000000000000000 ) ) ;
#207 = CARTESIAN_POINT ( 'NONE',  ( 0.0000000000000000000, 0.0000000000000000000, 0.1387676933219367000 ) ) ;
#208 = DIRECTION ( 'NONE',  ( -0.0000000000000000000, -0.0000000000000000000, -1.000000000000000000 ) ) ;
#209 = CARTESIAN_POINT ( 'NONE',  ( 0.005345904096558285100, 6.546844340398827900E-019, 0.0000000000000000000 ) ) ;
#210 = DIRECTION ( 'NONE',  ( -1.000000000000000000, 0.0000000000000000000, 0.0000000000000000000 ) ) ;
#211 = DIRECTION ( 'NONE',  ( -0.0000000000000000000, -0.0000000000000000000, -1.000000000000000000 ) ) ;
#212 = CARTESIAN_POINT ( 'NONE',  ( 0.0000000000000000000, 0.0000000000000000000, 0.1387676933219367000 ) ) ;
#213 = DIRECTION ( 'NONE',  ( -1.000000000000000000, 0.0000000000000000000, 0.0000000000000000000 ) ) ;
#214 = DIRECTION ( 'NONE',  ( -0.0000000000000000000, -0.0000000000000000000, -1.000000000000000000 ) ) ;
#215 = CARTESIAN_POINT ( 'NONE',  ( 0.0000000000000000000, 0.0000000000000000000, 0.09224620568251602800 ) ) ;
#216 = DIRECTION ( 'NONE',  ( -1.000000000000000000, 0.0000000000000000000, 0.0000000000000000000 ) ) ;
#217 = DIRECTION ( 'NONE',  ( -0.0000000000000000000, -0.0000000000000000000, -1.000000000000000000 ) ) ;
#218 = CARTESIAN_POINT ( 'NONE',  ( 0.0000000000000000000, 0.0000000000000000000, 0.09224620568251602800 ) ) ;
#219 = CARTESIAN_POINT ( 'NONE',  ( -0.008182880665241365500, -1.002113861449260200E-018, 0.1086287128368767600 ) ) ;
#220 = DIRECTION ( 'NONE',  ( -1.000000000000000000, 0.0000000000000000000, 0.0000000000000000000 ) ) ;
#221 = DIRECTION ( 'NONE',  ( -0.0000000000000000000, -0.0000000000000000000, -1.000000000000000000 ) ) ;
#222 = DIRECTION ( 'NONE',  ( -0.0000000000000000000, -0.0000000000000000000, -1.000000000000000000 ) ) ;
#223 = CARTESIAN_POINT ( 'NONE',  ( 0.0000000000000000000, 0.0000000000000000000, 0.0000000000000000000 ) ) ;
#224 = CARTESIAN_POINT ( 'NONE',  ( 0.0000000000000000000, 0.005345904096558290300, 0.0000000000000000000 ) ) ;
#225 = CARTESIAN_POINT ( 'NONE',  ( 0.0000000000000000000, 0.0000000000000000000, 0.0000000000000000000 ) ) ;
#226 = DIRECTION ( 'NONE',  ( -1.000000000000000000, 0.0000000000000000000, 0.0000000000000000000 ) ) ;
#227 = DIRECTION ( 'NONE',  ( -0.0000000000000000000, -0.0000000000000000000, -1.000000000000000000 ) ) ;
#228 = CARTESIAN_POINT ( 'NONE',  ( 0.0000000000000000000, 0.0000000000000000000, 0.0000000000000000000 ) ) ;
#229 = DIRECTION ( 'NONE',  ( -1.000000000000000000, 0.0000000000000000000, 0.0000000000000000000 ) ) ;
#230 = DIRECTION ( 'NONE',  ( -1.000000000000000000, 0.0000000000000000000, 0.0000000000000000000 ) ) ;
#231 = DIRECTION ( 'NONE',  ( -0.0000000000000000000, -0.0000000000000000000, -1.000000000000000000 ) ) ;
#232 = CARTESIAN_POINT ( 'NONE',  ( 0.0000000000000000000, 0.0000000000000000000, 0.0000000000000000000 ) ) ;
#233 = CARTESIAN_POINT ( 'NONE',  ( -0.005000000000000000100, 0.0000000000000000000, 0.0000000000000000000 ) ) ;
#234 = DIRECTION ( 'NONE',  ( -0.0000000000000000000, -0.0000000000000000000, -1.000000000000000000 ) ) ;
#235 = DIRECTION ( 'NONE',  ( -1.000000000000000000, 0.0000000000000000000, 0.0000000000000000000 ) ) ;
#236 = DIRECTION ( 'NONE',  ( -0.0000000000000000000, -0.0000000000000000000, -1.000000000000000000 ) ) ;
#237 = DIRECTION ( 'NONE',  ( -1.000000000000000000, 0.0000000000000000000, 0.0000000000000000000 ) ) ;
#238 = DIRECTION ( 'NONE',  ( -0.0000000000000000000, -0.0000000000000000000, -1.000000000000000000 ) ) ;
#239 = DIRECTION ( 'NONE',  ( -0.0000000000000000000, -0.0000000000000000000, -1.000000000000000000 ) ) ;
#240 = DIRECTION ( 'NONE',  ( -0.0000000000000000000, -0.0000000000000000000, -1.000000000000000000 ) ) ;
#241 = CARTESIAN_POINT ( 'NONE',  ( 0.0000000000000000000, 0.0000000000000000000, 0.0000000000000000000 ) ) ;
#242 = CARTESIAN_POINT ( 'NONE',  ( -0.01000000000000000000, 0.0000000000000000000, 0.0000000000000000000 ) ) ;
#243 = CARTESIAN_POINT ( 'NONE',  ( 0.0000000000000000000, 0.0000000000000000000, 0.1086287128368767600 ) ) ;
#244 = CARTESIAN_POINT ( 'NONE',  ( 0.0000000000000000000, 0.0000000000000000000, 0.09224620568251602800 ) ) ;
#245 = CARTESIAN_POINT ( 'NONE',  ( 0.005000000000000000100, 6.123233995736766900E-019, 0.0000000000000000000 ) ) ;
#246 = DIRECTION ( 'NONE',  ( -0.0000000000000000000, -0.0000000000000000000, -1.000000000000000000 ) ) ;
#247 = CARTESIAN_POINT ( 'NONE',  ( -0.005345904096558285100, 0.0000000000000000000, 0.0000000000000000000 ) ) ;
#248 = CARTESIAN_POINT ( 'NONE',  ( 0.01000000000000000000, 1.224646799147353400E-018, 0.0000000000000000000 ) ) ;
#249 = DIRECTION ( 'NONE',  ( -1.000000000000000000, 0.0000000000000000000, 0.0000000000000000000 ) ) ;
#250 = DIRECTION ( 'NONE',  ( -0.0000000000000000000, 0.0000000000000000000, -1.000000000000000000 ) ) ;
#251 = CARTESIAN_POINT ( 'NONE',  ( 0.0000000000000000000, 0.0000000000000000000, 0.0000000000000000000 ) ) ;
#252 = DIRECTION ( 'NONE',  ( -0.0000000000000000000, -0.0000000000000000000, -1.000000000000000000 ) ) ;
#253 = DIRECTION ( 'NONE',  ( -0.0000000000000000000, -0.0000000000000000000, -1.000000000000000000 ) ) ;
#254 = DIRECTION ( 'NONE',  ( -1.000000000000000000, 0.0000000000000000000, 0.0000000000000000000 ) ) ;
#255 = DIRECTION ( 'NONE',  ( -1.224646799147353200E-016, 1.000000000000000000, 0.0000000000000000000 ) ) ;
#256 = DIRECTION ( 'NONE',  ( -1.000000000000000000, 0.0000000000000000000, 0.0000000000000000000 ) ) ;
#257 = DIRECTION ( 'NONE',  ( -0.0000000000000000000, -0.0000000000000000000, -1.000000000000000000 ) ) ;
#258 = PLANE ( 'NONE',  #70 ) ;
#259 = CARTESIAN_POINT ( 'NONE',  ( 0.0000000000000000000, 0.0000000000000000000, 0.0000000000000000000 ) ) ;
#260 = CARTESIAN_POINT ( 'NONE',  ( 0.0000000000000000000, 0.0000000000000000000, 0.1086287128368767600 ) ) ;
#261 = CARTESIAN_POINT ( 'NONE',  ( 0.0000000000000000000, 0.0000000000000000000, 0.0000000000000000000 ) ) ;
#262 = DIRECTION ( 'NONE',  ( -0.0000000000000000000, -0.0000000000000000000, -1.000000000000000000 ) ) ;
#263 = DIRECTION ( 'NONE',  ( -1.000000000000000000, 0.0000000000000000000, 0.0000000000000000000 ) ) ;
#264 = DIRECTION ( 'NONE',  ( -0.0000000000000000000, -0.0000000000000000000, -1.000000000000000000 ) ) ;
#265 = DIRECTION ( 'NONE',  ( -0.0000000000000000000, -0.0000000000000000000, -1.000000000000000000 ) ) ;
#266 = VECTOR ( 'NONE', #234, 39.37007874015748100 ) ;
#267 = LINE ( 'NONE', #245, #266 ) ;
#268 = CIRCLE ( 'NONE', #73, 0.01000000000000000000 ) ;
#269 = TOROIDAL_SURFACE ( 'NONE', #52, -0.008182880665241365500, 0.03289599500414629200 ) ;
#270 = LINE ( 'NONE', #242, #273 ) ;
#271 = CLOSED_SHELL ( 'NONE', ( #33, #40, #36, #34, #32 ) ) ;
#272 = FACE_OUTER_BOUND ( 'NONE', #310, .T. ) ;
#273 = VECTOR ( 'NONE', #238, 39.37007874015748100 ) ;
#274 = CYLINDRICAL_SURFACE ( 'NONE', #72, 0.005000000000000000100 ) ;
#275 = CYLINDRICAL_SURFACE ( 'NONE', #41, 0.005000000000000000100 ) ;
#276 = TOROIDAL_SURFACE ( 'NONE', #37, -0.008182880665241365500, 0.03289599500414629200 ) ;
#277 = FACE_OUTER_BOUND ( 'NONE', #307, .T. ) ;
#278 = FACE_OUTER_BOUND ( 'NONE', #312, .T. ) ;
#279 = CYLINDRICAL_SURFACE ( 'NONE', #74, 0.005345904096558285100 ) ;
#280 = FACE_OUTER_BOUND ( 'NONE', #308, .T. ) ;
#281 = FACE_BOUND ( 'NONE', #306, .T. ) ;
#282 = FACE_BOUND ( 'NONE', #309, .T. ) ;
#283 = CYLINDRICAL_SURFACE ( 'NONE', #16, 0.01000000000000000000 ) ;
#284 = FACE_OUTER_BOUND ( 'NONE', #303, .T. ) ;
#285 = FACE_OUTER_BOUND ( 'NONE', #313, .T. ) ;
#286 = FACE_OUTER_BOUND ( 'NONE', #311, .T. ) ;
#287 = FACE_OUTER_BOUND ( 'NONE', #302, .T. ) ;
#288 = ORIENTED_EDGE ( 'NONE', *, *, #55, .T. ) ;
#289 = FACE_OUTER_BOUND ( 'NONE', #305, .T. ) ;
#290 = CIRCLE ( 'NONE', #18, 0.03289599500414629200 ) ;
#291 = VECTOR ( 'NONE', #236, 39.37007874015748100 ) ;
#292 = CIRCLE ( 'NONE', #67, 0.01000000000000000000 ) ;
#293 = VECTOR ( 'NONE', #246, 39.37007874015748100 ) ;
#294 = LINE ( 'NONE', #233, #291 ) ;
#295 = CIRCLE ( 'NONE', #24, 0.005000000000000000100 ) ;
#296 = VECTOR ( 'NONE', #257, 39.37007874015748100 ) ;
#297 = LINE ( 'NONE', #248, #293 ) ;
#298 = CIRCLE ( 'NONE', #57, 0.005345904096558290300 ) ;
#299 = CIRCLE ( 'NONE', #69, 0.01000000000000000000 ) ;
#300 = LINE ( 'NONE', #247, #296 ) ;
#301 = EDGE_LOOP ( 'NONE', ( #335, #336, #337, #338 ) ) ;
#302 = EDGE_LOOP ( 'NONE', ( #344, #345 ) ) ;
#303 = EDGE_LOOP ( 'NONE', ( #329, #331, #332, #334 ) ) ;
#304 = EDGE_LOOP ( 'NONE', ( #339, #340, #342, #343 ) ) ;
#305 = EDGE_LOOP ( 'NONE', ( #349, #350, #352, #353 ) ) ;
#306 = EDGE_LOOP ( 'NONE', ( #354, #355 ) ) ;
#307 = EDGE_LOOP ( 'NONE', ( #288, #351, #364, #341 ) ) ;
#308 = EDGE_LOOP ( 'NONE', ( #326, #327, #328 ) ) ;
#309 = EDGE_LOOP ( 'NONE', ( #346, #347 ) ) ;
#310 = EDGE_LOOP ( 'NONE', ( #330, #333 ) ) ;
#311 = EDGE_LOOP ( 'NONE', ( #358, #360, #359, #365 ) ) ;
#312 = EDGE_LOOP ( 'NONE', ( #361, #356 ) ) ;
#313 = EDGE_LOOP ( 'NONE', ( #362, #348, #363 ) ) ;
#314 = VERTEX_POINT ( 'NONE', #188 ) ;
#315 = VERTEX_POINT ( 'NONE', #185 ) ;
#316 = VERTEX_POINT ( 'NONE', #181 ) ;
#317 = VERTEX_POINT ( 'NONE', #184 ) ;
#318 = VERTEX_POINT ( 'NONE', #180 ) ;
#319 = VERTEX_POINT ( 'NONE', #183 ) ;
#320 = VERTEX_POINT ( 'NONE', #179 ) ;
#321 = VERTEX_POINT ( 'NONE', #182 ) ;
#322 = VERTEX_POINT ( 'NONE', #177 ) ;
#323 = VERTEX_POINT ( 'NONE', #175 ) ;
#324 = VERTEX_POINT ( 'NONE', #174 ) ;
#325 = VERTEX_POINT ( 'NONE', #172 ) ;
#326 = ORIENTED_EDGE ( 'NONE', *, *, #25, .F. ) ;
#327 = ORIENTED_EDGE ( 'NONE', *, *, #59, .T. ) ;
#328 = ORIENTED_EDGE ( 'NONE', *, *, #50, .F. ) ;
#329 = ORIENTED_EDGE ( 'NONE', *, *, #43, .F. ) ;
#330 = ORIENTED_EDGE ( 'NONE', *, *, #56, .T. ) ;
#331 = ORIENTED_EDGE ( 'NONE', *, *, #50, .T. ) ;
#332 = ORIENTED_EDGE ( 'NONE', *, *, #21, .T. ) ;
#333 = ORIENTED_EDGE ( 'NONE', *, *, #22, .T. ) ;
#334 = ORIENTED_EDGE ( 'NONE', *, *, #22, .F. ) ;
#335 = ORIENTED_EDGE ( 'NONE', *, *, #60, .F. ) ;
#336 = ORIENTED_EDGE ( 'NONE', *, *, #58, .T. ) ;
#337 = ORIENTED_EDGE ( 'NONE', *, *, #1, .T. ) ;
#338 = ORIENTED_EDGE ( 'NONE', *, *, #7, .F. ) ;
#339 = ORIENTED_EDGE ( 'NONE', *, *, #17, .T. ) ;
#340 = ORIENTED_EDGE ( 'NONE', *, *, #20, .T. ) ;
#341 = ORIENTED_EDGE ( 'NONE', *, *, #21, .F. ) ;
#342 = ORIENTED_EDGE ( 'NONE', *, *, #23, .F. ) ;
#343 = ORIENTED_EDGE ( 'NONE', *, *, #39, .F. ) ;
#344 = ORIENTED_EDGE ( 'NONE', *, *, #23, .T. ) ;
#345 = ORIENTED_EDGE ( 'NONE', *, *, #42, .T. ) ;
#346 = ORIENTED_EDGE ( 'NONE', *, *, #46, .F. ) ;
#347 = ORIENTED_EDGE ( 'NONE', *, *, #1, .F. ) ;
#348 = ORIENTED_EDGE ( 'NONE', *, *, #25, .T. ) ;
#349 = ORIENTED_EDGE ( 'NONE', *, *, #20, .F. ) ;
#350 = ORIENTED_EDGE ( 'NONE', *, *, #47, .T. ) ;
#351 = ORIENTED_EDGE ( 'NONE', *, *, #43, .T. ) ;
#352 = ORIENTED_EDGE ( 'NONE', *, *, #39, .T. ) ;
#353 = ORIENTED_EDGE ( 'NONE', *, *, #42, .F. ) ;
#354 = ORIENTED_EDGE ( 'NONE', *, *, #48, .T. ) ;
#355 = ORIENTED_EDGE ( 'NONE', *, *, #60, .T. ) ;
#356 = ORIENTED_EDGE ( 'NONE', *, *, #47, .F. ) ;
#357 = VERTEX_POINT ( 'NONE', #171 ) ;
#358 = ORIENTED_EDGE ( 'NONE', *, *, #58, .F. ) ;
#359 = ORIENTED_EDGE ( 'NONE', *, *, #7, .T. ) ;
#360 = ORIENTED_EDGE ( 'NONE', *, *, #48, .F. ) ;
#361 = ORIENTED_EDGE ( 'NONE', *, *, #17, .F. ) ;
#362 = ORIENTED_EDGE ( 'NONE', *, *, #59, .F. ) ;
#363 = ORIENTED_EDGE ( 'NONE', *, *, #55, .F. ) ;
#364 = ORIENTED_EDGE ( 'NONE', *, *, #56, .F. ) ;
#365 = ORIENTED_EDGE ( 'NONE', *, *, #46, .T. ) ;
#366 = CLOSED_SHELL ( 'NONE', ( #77, #76, #29, #28, #31, #30 ) ) ;
ENDSEC;
END-ISO-10303-21;
